Mišo Kovač

Odvest Ću Te Na Vjencanje(uvod)

by: faLLen_angel

Pronađi akord!

Ne znaš kako odsvirati neki od akorda pjesmi Odvest Ću Te Na Vjencanje(uvod)? Upiši akord u tražilicu i saznaj!

Traženi akord će se prikazati ovdje

Od istog izvođača

Pregledano 20535 puta
Pregledano 55956 puta
Pregledano 94082 puta
Pregledano 7254 puta
Pregledano 8351 puta
Trebaš ritam za ovu pjesmu? Pronađi ga ovdje
Akordi/Tabovi:
Odvest cu te na vencanje                                   


                                                           
E||------------------------------|---7---------10-----|
B||--10-9---10----9---10-----9---|---8-----10--12-----|
G||--11-10--11----10--11-----10--|---------11---------|
D||------------------------------|--------------------|
A||------------------------------|--------------------|
E||------------------------------|--------------------|


                                                       
E||--9-------------------|----------------------------|
B||--10--12--10----------|----------------------------|
G||------12--11--9-------|---9------11--9------11--9--|
D||----------------------|----------13---------13-----|
A||--------------10------|---10---------10---------10-|
E||----------------------|----------------------------|


                                                                           
E||--------------------9-------|------7---------------|\
B||---------10-----------10----|------8--10------7----| \
G||-----11--11-----9-----------|---------11--9---7----|  \ 2X
D||-----13---------------------|----------------------|  /
A||----------------10----------|-------------10-------| /
E||----------------------------|----------------------|/
Komentari
Još nema komentara