Oliver Dragojević

Majko Da Li Znas(solo)

by: faLLen_angel

Pronađi akord!

Ne znaš kako odsvirati neki od akorda pjesmi Majko Da Li Znas(solo)? Upiši akord u tražilicu i saznaj!

Traženi akord će se prikazati ovdje

Od istog izvođača

Pregledano 5680 puta
Pregledano 22815 puta
Pregledano 10103 puta
Pregledano 51812 puta
Pregledano 399 puta
Trebaš ritam za ovu pjesmu? Pronađi ga ovdje
Akordi/Tabovi:
Oliver Dragojevic
                    Majko da li znas                                 



                                                                       
E||--12--------14--------|--17--------16--------|------------14--------|
B||----------------------|----------------------|--17------------------|
G||----------------------|----------------------|----------------------|
D||----------------------|----------------------|----------------------|
A||----------------------|----------------------|----------------------|
E||----------------------|----------------------|----------------------|


                                                                           
E||--17--------16--------|--16------16--14--12--|--14------14r---------|
B||----------------------|----------------------|--------------14------|
G||----------------------|----------------------|----------------------|
D||----------------------|----------------------|----------------------|
A||----------------------|----------------------|----------------------|
E||----------------------|----------------------|----------------------|
Komentari
Još nema komentara