Mišo Kovač

Jelena(uvod)

by: faLLen_angel

Pronađi akord!

Ne znaš kako odsvirati neki od akorda pjesmi Jelena(uvod)? Upiši akord u tražilicu i saznaj!

Traženi akord će se prikazati ovdje

Od istog izvođača

Pregledano 20410 puta
Pregledano 15290 puta
Pregledano 58498 puta
Pregledano 56985 puta
Pregledano 11194 puta
Trebaš ritam za ovu pjesmu? Pronađi ga ovdje
Akordi/Tabovi:
Jelena
                   -Miso Kovac-


                            D                                             
E||----------------------|------------------5--------|
B||----------------------|--7--7---7--7--8----8h7--7-|
G||------------------7-9-|---------------------------|
D||----------------------|---------------------------|
A||----------------------|---------------------------|
E||----------------------|---------------------------|


                            G                                               
E||--5-------------------|---------------------------|
B||-------8--7--8--7-----|---------------------------|
G||--------------------7-|---------------------------|
D||----------------------|--9------------------------|
A||----------------------|---------------------------|
E||----------------------|---------------------------|

                            D
E||----------------------|---------------------------|
B||-------7-7------------|---------------------------|
G||--9-10------10-9--7h9-|--10-----------------------|
D||----------------------|---------------------------|
A||----------------------|---------------------------|
E||----------------------|---------------------------|


                            G                                       
E||----------------------|--------------------------||
B||-----7--9--9---7------|-------7------------------||
G||--10---------------10-|--9h10--------------------|| 2x
D||----------------------|--------------------------||
A||----------------------|--------------------------||
E||----------------------|--------------------------||
Komentari
Još nema komentara