Mate Bulić

Mala Moja Oko Plavo

by: Johnny Bravo

Pronađi akord!

Ne znaš kako odsvirati neki od akorda pjesmi Mala Moja Oko Plavo? Upiši akord u tražilicu i saznaj!

Traženi akord će se prikazati ovdje

Od istog izvođača

Pregledano 5960 puta
Pregledano 43686 puta
Pregledano 3000 puta
Pregledano 4745 puta
Pregledano 9784 puta
Trebaš ritam za ovu pjesmu? Pronađi ga ovdje
Akordi/Tabovi:
Mala moja oko plavo - Mate Bulic

Uvod X2

  G                                                 D              G       

E-3-3-5-5-7--7-7-8-8-10--10-12-13-15-12-13-10-12----10-10-------------
B------------------------------------------------13-------13-13-12-12-
G---------------------------------------------------------------------
D---------------------------------------------------------------------
A---------------------------------------------------------------------
E---------------------------------------------------------------------

G                 C                      A                        D    G

E------------------8-8-10-12--10-12-------------------------------------
B-------10-10-12--------------------13-15-12-13-10-12-13-13.12-12-10-10-
G-12-12-----------------------------------------------------------------
D-----------------------------------------------------------------------
A-----------------------------------------------------------------------
E-----------------------------------------------------------------------


G                    D      C   G  D      G
Oko plavo kada te poljubom, kad te poljubim,
                     D      A      D
Ja ne mogo a da ne poludim, da ne poludim.

Varao sam i druge i sebe, jesam varao
Ali samo volio sam tebe, tebe jedino.

Riff 1

E----------10-12-10-12-13-
B-10-12-13----------------
G-------------------------
D-------------------------
A-------------------------
E-------------------------

REF X2

C                    G
Mala moja oko plavo, sedam noći nisam spavo
                         A                      D  Riff 1
Sedam noći, sedam dana, ja sam zadnji gost kavana.

Solo = Uvod


Mala moja oko plavo, oko plavo plavo,
Voliš li me reci pravo, ženska glavo glavo.

Pa da mogu među ljude, među ljude ljude
Da mi duši lakše bude, lakše bude bude.

REF X2

Solo  X2

G           C       G  D C C D

E-------------------------------
B-1-1-3-3-5--5-5-6-8--5-3-1-1-0-
G-------------------------------
D-------------------------------
A-------------------------------
E-------------------------------

Solo = Uvod

REF
Komentari
Još nema komentara