Mate Bulić

Hodam Krivom Stranom

by: Johnny Bravo

Pronađi akord!

Ne znaš kako odsvirati neki od akorda pjesmi Hodam Krivom Stranom? Upiši akord u tražilicu i saznaj!

Traženi akord će se prikazati ovdje

Od istog izvođača

Pregledano 15014 puta
Pregledano 2636 puta
Pregledano 14045 puta
Pregledano 27038 puta
Pregledano 13203 puta
Trebaš ritam za ovu pjesmu? Pronađi ga ovdje
Akordi/Tabovi:
Hodam krivom stranom - Mate Bulic

UVOD:

  G#                                       

E-----------------------------------------
B-13-13-11-13-13-11-13-11-11--------------
G----------------------------13-13--13----
D--------------------------------------13-
A-----------------------------------------
E-----------------------------------------

  G#

E-----------------------------------
B-13-13-11-13-13-11-13-11-11--------
G-----------------------------13-13-
D-----------------------------------
A-----------------------------------
E-----------------------------------


G#
Zora sniva, lice skriva
bas mi ne ide
i sve moje uspomene
D#       G#
kisa ispere

Riff 1

  G#

E-----------------------------------
B-13-13-11-13-13-11-13-11-11--------
G-----------------------------13-13-
D-----------------------------------
A-----------------------------------
E-----------------------------------


Drhte oci od ponoci
ko lisce jesenje
k'o da snivas, zasto skrivas
sve to od mene

Riff 2

G#

E---------------------------
B-13-13-11-13-11-11---------
G---------------------13-13-
D---------------------------
A---------------------------
E---------------------------

Predrefren

G#

E-------------------
B-16-14-14-13-13-11-
G-------------------
D-------------------
A-------------------
E-------------------


REF

G#
Meni zivot putuje
  C#    A#m     G#   
od nesrece, do nesrece

meni zivot tuguje
C#    A#m   G#
bez tebe, bez tebe

D#
Hodam, hodam
                G#
hodam krivom stranom   X2
C#        G#
hej moja noci
D#               G#
sto ce bit' sa danom

SOLO = UVOD


Drhte oci od ponoci
ko lisce jesenje
k'o da snivas, zasto skrivas
sve to od mene

Riff 2

REF

G#

E---------------------------
B-13-13-11-13-11-11---------
G---------------------13-13-
D---------------------------
A---------------------------
E---------------------------

Predrefren 2

A

E-------------------
B-17-15-15-14-14-12-
G-------------------
D-------------------
A-------------------
E-------------------


REF

A
Meni zivot putuje
    D  Hm       A   
od nesrece, do nesrece

meni zivot tuguje
D    Hm   A
bez tebe, bez tebe

E
Hodam, hodam
                A
hodam krivom stranom   X2
D        A
hej moja noci
E                 A
sto ce bit' sa danom
Komentari
Još nema komentara