Frank Sinatra

A Foggy Day

by:

Pronađi akord!

Ne znaš kako odsvirati neki od akorda pjesmi A Foggy Day? Upiši akord u tražilicu i saznaj!

Traženi akord će se prikazati ovdje

Od istog izvođača

Pregledano 2888 puta
Pregledano 7753 puta
Pregledano 2046 puta
Pregledano 2973 puta
Pregledano 11303 puta
Trebaš ritam za ovu pjesmu? Pronađi ga ovdje
Akordi/Tabovi:
Tuning: EADGBE Time Signature: 4/4  Lightly brushed chords

|       |       |       |        |       |       |       |       
|--------------------------------|--------------------------------|
|--------0-------0-------0-------|3-------------------------------|
|--------1-----------------------|4-------------------------------|
|--------2-----------------------|3-------------------------------|
|--------2-----------------------|--------------------------------|
|0-------------------------------|------------------------1-------|

|       |       |       |        |       |       |       |       
|--------------------------------|4-------------------------------|
|--------2-------2-------2-------|4-------------------------------|
|--------2-----------------------|4-------------------------------|
|--------2-----------------------|4-------------------------------|
|--------------------------------|--------------------------------|
|2-------------------------------|------------------------7-------|

|       |       |       |        |       |       |       |       
|----------------0-------0-------|3-------------------------------|
|----------------0-------0-------|2-------------------------------|
|----------------1-------1-------|3-------------------------------|
|----------------2-------2-------|2-------------------------------|
|--------------------------------|--------------------------------|
|0-------------------------------|------------------------1-------|

|       |       |       |        |       |       |       |       
|----------------2-------2-------|9-------------------------------|
|----------------2-------2-------|7-------------------------------|
|----------------2-------2-------|7-------------------------------|
|----------------2-------2-------|7-------------------------------|
|--------------------------------|--------------------------------|
|2-------------------------------|--------------------------------|

|       |       |       |        |       |       |       |       
|--------11------11------11------|7-------7-----------------------|
|--------9-------9-------9-------|7-------7-----------------------|
|--------9-------9-------9-------|7-------7-----------------------|
|--------9-------9-------9-------|6-------6-----------------------|
|--------------------------------|--------------------------------|
|--------------------------------|--------------------------------|

|       |       |       |        |       |       |       |       
|--------4-------4-------4-------|0-------------------------------|
|--------2-------2-------2-------|0-------------------------------|
|--------2-------2-------2-------|5-------------------------------|
|--------2-------2-------2-------|5-------------------------------|
|--------------------------------|0-------------------------------|
|--------------------------------|--------------------------------|

|       |       |       |        |       |       |       |       
|--------4-------4---3---4-------|7-------7-----------------------|
|--------3-------3---2---3-------|6-------6-----------------------|
|--------4-------4---3---4-------|7-------7-----------------------|
|--------3-------3---2---3-------|6-------6-----------------------|
|--------------------------------|--------------------------------|
|--------------------------------|--------------------------------|

|       |       |       |        |       |       |       |       
|--------2-------3-------4-------|--------------------------------|
|--------2-------3-------4-------|0-------------------------------|
|--------2-------3-------4-------|2-------------------------------|
|--------2-------3-------4-------|1-------------------------------|
|--------------------------------|2-------------------------------|
|--------------------------------|------------------------7-------|

|       |       |       |        |       |       |       |       
|--------------------------------|--------------------------------|
|--------0-------0-------0-------|3-------3-----------------------|
|--------1-----------------------|4-------4-----------------------|
|--------2-----------------------|3-------3-----------------------|
|--------2-----------------------|--------------------------------|
|0-------------------------------|------------------------1-------|

|       |       |       |        |       |       |       |       
|--------------------------------|4-------------------------------|
|--------2-------2-------2-------|4-------------------------------|
|--------2-----------------------|4-------------------------------|
|--------2-----------------------|4-------------------------------|
|--------------------------------|--------------------------------|
|2-------------------------------|------------------------7-------|

|       |       |       |        |       |       |       |       
|--------0-------0-------0-------|3-------3-------3-------1-------|
|--------0-------0-------0-------|2---------------2-------1-------|
|--------1-------1-------1-------|3---------------3-------1-------|
|--------2-------2-------2-------|2---------------2-------1-------|
|--------------------------------|--------------------------------|
|0-------------------------------|--------------------------------|

|       |       |       |        |       |       |       |       
|2---------------2-------2-------|9-----------------------9-------|
|2---------------2-------2-------|7-------------------------------|
|2---------------2-------2-------|7-------------------------------|
|2---------------2-------2-------|7-------------------------------|
|--------------------------------|--------------------------------|
|--------------------------------|--------------------------------|

|       |       |       |        |       |       |       |       
|12--------------12--------------|9-----------------------0-------|
|12--------------12--------------|------------------------5-------|
|12--------------12--------------|------------------------7-------|
|--------------------------------|----------------6---------------|
|--------------------------------|--------------------------------|
|--------------------------------|--------6-----------------------|

|       |       |       |        |       |       |       |       
|7-------7-------7-------7-------|5---------------4-------5-------|
|5---------------5---------------|5---------------4-------5-------|
|6---------------6---------------|5---------------4-------4-------|
|6---------------6---------------|4---------------2-------6-------|
|--------------------------------|--------------------------------|
|--------------------------------|--------------------------------|

|       |       |       |        |       |       |       |       
|7-------0-------2-------5-------|4-------0-------2-------5-------|
|7---------------2-------5-------|4---------------2-------5-------|
|8---------------2-------6-------|4---------------2-------6-------|
|6---------------2-------4-------|2---------------2-------4-------|
|--------------------------------|--------------------------------|
|--------------------------------|--------------------------------|

|       |       |       |        |       |       |       |       
|4---------------0---------------|0---------------2---------------|
|4---------------2---------------|1---------------0---------------|
|4---------------1---------------|3---------------2---------------|
|2---------------2---------------|2---------------1---------------|
|----------------1---------------|3---------------2---------------|
|--------------------------------|--------------------------------|

|       |       |       |        |       |       |       |       
|--------------------------------|0-------------------------------|
|------------------------0-------|--------0-----------------------|
|----------------0---------------|----------------0---------------|
|--------2-----------------------|------------------------2-------|
|3-------------------------------|--------------------------------|
|--------------------------------|--------------------------------|

|       |       |       |        |       |       |       |       
|--------------------------------|--------------------------------|
|--------------------------------|----------------0---------------|
|--------------------------------|1---------------1---------------|
|----------------1---------------|----------------1---------------|
|--------------------------------|--------------------------------|
|0-------------------------------|----------------0---------------|
Komentari
Još nema komentara