Thompson

Ljutu Travu Na Ljutu Ranu /Verzija 2/

by: Johnny Bravo

Pronađi akord!

Ne znaš kako odsvirati neki od akorda pjesmi Ljutu Travu Na Ljutu Ranu /Verzija 2/? Upiši akord u tražilicu i saznaj!

Traženi akord će se prikazati ovdje

Od istog izvođača

Pregledano 25796 puta
Pregledano 27161 puta
Pregledano 1095 puta
Pregledano 19422 puta
Pregledano 11924 puta
Trebaš ritam za ovu pjesmu? Pronađi ga ovdje
Akordi/Tabovi:
Ljutu travu na ljutu ranu - Thompson

UVOD:

E-14----------------
B----14-17----------
G----------16-18----
D----------------16-
A-------------------
E-------------------

E-----------
B-----------
G-----------
D-4-4-7-4-9-
A-----------
E-----------

E--------------------------
B--------------------------
G--------------18-14-16----
D-4-7-6-2-0--2----------16-
A--------------------------
E--------------------------

Riff 1

E-------------
B-------------
G---------1-2-
D-4-4-2-4-----
A-------------
E-------------

Riff 2

E---------------
B---------------
G-----------1-2-
D-4-2-4-2-4-----
A---------------
E---------------


F#m        E       F#m         E
Od mog srca draga i ljubavi tvoje
F#m           E                F#m
ima jača ljubav, ljubav zemlje moje
A            E      F#m         E
Sjećaš li se draga, pričale su kiše
F#m           E                F#m     Riff 1
za ljubav se gine, zbog Hrvatske diše.

REF

A                     E
Ljutu travu, na ljutu ranu
          Hm              F#m    Riff 2 preko Hej
dat ću draga ja i život za nju
    A                     E
Hej,ljutu travu, na ljutu ranu
      Hm                F#m
Nemoj nikad zaboravit na nju.


Onu istu našu košulju pripremi
na tavan je stavi, za mene je spremi
Bit će ona opet i sinu po mjeri
kao što je bila mom djedu i meni.

REF

SOLO

E--------------------------------------
B-14-14-12-1412------------------------
G---------------14-14-13-1413----------
D-----------------------------16-14-14-
A--------------------------------------
E--------------------------------------

E----------------------------------------------
B-------------------------------------14-17-14-
G-------13-13-14-16-16-18-19-18-16-14----------
D-14-16----------------------------------------
A----------------------------------------------
E----------------------------------------------

E---------------
B---------------
G-----------1-2-
D-4-2-4-2-4-----
A---------------
E---------------

REF

    A                     E
Hej,ljutu travu, na ljutu ranu
      Hm                F#m
Nemoj nikad zaboravit na nju.

KRAJ

E--------------------2-1-2---14-
B--------------2-1-2------------
G-------2-1-2-------------------
D-4-2-4-------------------------
A-------------------------------
E-------------------------------
Komentari

ĐEKI kaže:

svaka čast

09-11-2009 20:24

POWERSLAVEN kaže:

Legendarna pjesma...

15-12-2010 20:21