Thompson

Bojna Čavoglave /Verzija 2/

by: Johnny Bravo

Pronađi akord!

Ne znaš kako odsvirati neki od akorda pjesmi Bojna Čavoglave /Verzija 2/? Upiši akord u tražilicu i saznaj!

Traženi akord će se prikazati ovdje

Od istog izvođača

Pregledano 9951 puta
Pregledano 2304 puta
Pregledano 58627 puta
Pregledano 17861 puta
Pregledano 28974 puta
Trebaš ritam za ovu pjesmu? Pronađi ga ovdje
Akordi/Tabovi:
Bojna cavoglave - Thompson

Uvod: Am   Riff 1

Riff 1        Riff 2

  C Dm
E--------     E--------
B--------     B--------
G-5--7---     G--------
D-5--7---     D--------
A-3--5---     A-0-2-3--
E--------     E--------

Za dom!!!! Spremni!!! Riff 1

Am                            C
U zagori na izvoru rijeke cikole
Dm          Am        G       Am    Riff 2
Stala braca da obrane nase domove
Dm          Am        G       Am    Riff 1
Stala braca da obrane nase domove
Am                                 C
Stoji Hrvat do Hrvata mi smo braca svi
Dm       Am        G            Am   Riff 2
Necete u cavoglave dok smo zivi mi
Dm       Am        G            Am   Riff 1
Necete u cavoglave dok smo zivi mi

Puce tompson, kalasnjikov a i zbrojevka
baci bombu goni bandu preko izvora-2x
korak naprijed puska gotovs svi uz pjesmu svi
za dom braco za slobodu borimo se mi-2x

Am  C Dm

cujte srpski dobrovoljci bando cetnici
stici ce vas nasa ruka i u srbiji-2x
stici ce vas bozja pravda to vec svatko zna
sudit ce vam bojovnici iz cavoglava-2x

slusajte sad poruku od svetog ilije
necete u cavoglave niste ni prije-2x
oj hrvati braco mila iz cavoglava
hrvatska vam zaboravit nece nikada
nece nikada nece nikada nece nikada
G        Am   X3       
nece nikada
Komentari

Tommy Emmanuel kaže:

Idemo Hrvati! :)

06-11-2007 12:56

Johnny Bravo kaže:

tako je!!!

06-11-2007 20:37

torcida jaska kaže:

ovo je u redu
osim riffa 2 koji bi ja osobno sviro na 6 zici 5-7-8
jer bi se trebali svirat power chordi da to zvuci kak se spada;P
inace sve 5

14-05-2008 19:42

vilkovm kaže:

5-7-8 na 6. ti je potpuno isto kao i 0-2-3 na 5. ako ti je gitara dobro naštimana.

14-01-2009 13:50

Astronaut kaže:

jel mi može neko reći kako ide ritam... zahvaljujem unaprijed :thrasher

07-02-2009 15:50

fabyyyy kaže:

i ja bi ritam :guitarist

15-02-2009 01:01

matkone kaže:

zakon pjesma imamo "koncert" za dan skole i ja cu krent cavoglave odsvirat hahaha

20-04-2009 22:53

Pips kaže:

bili netko mogao napisat tab za nove cavoglave al ono prije nego sta pocme pisma kad tek uleti gitara onu ljestvicu?

23-09-2009 14:01

zdeslav kaže:

Ovdje možete pogledati točan ritam i akorde , ovo je cover live verzije na trgu bana '09 godine :))

15-04-2013 20:10

zdeslav kaže:

Ovdje možete pogledati točan ritam i akorde , ovo je cover live verzije na trgu bana '09 godine :))

15-04-2013 20:11

r3xcss kaže:

Da se bolje vidi

|--12-8----12-8----12-8-13-8----13-8----13-8
|-------10------10-----------10------10-----
|-------------------------------------------
|-------------------------------------------
|-------------------------------------------
|-------------------------------------------

|--10-7---10-7---10-7------7-8-10-12-13
|-------8------8------8-10-------------
|--------------------------------------
|--------------------------------------
|--------------------------------------
|--------------------------------------

18-12-2013 03:07

r3xcss kaže:

e|-------------------------------------------------------
B|-------5-----6----------------3--5-3-1-3-1-------
G|--2----------------5-----4----------------------4-0
D|-------------------------------------------------------
A|-------------------------------------------------------
E|------------------------------------------------------- x4

e|--12-8----12-8----12-8-13-8----13-8----13-8
B|-------10------10-----------10------10-----
G|-------------------------------------------
D|-------------------------------------------
A|-------------------------------------------
E|-------------------------------------------

e|--10-7---10-7---10-7------7-8-10-12-13
B|-------8------8------8-10-------------
G|--------------------------------------
D|--------------------------------------
A|--------------------------------------
E|-------------------------------------- x2


U live verziji se svira samo prvi dio 4 puta (prva dva puta samo ovako kako pise a u druga dva se ukljucuje i 2. gitara sa harmonijom) dok se u verziji sa albuma druga strana sviraju oba dijela kako pise.

Ako nekoga dodatno zanima ona jedna nota na pocetku kod dijela ZA DOM, SPREMNI! je na B zici 21^22~~~~~~~~

Bog i Hrvati

18-12-2013 03:17