Bijelo Dugme

Dozivjeti Stotu

by: hrv

Pronađi akord!

Ne znaš kako odsvirati neki od akorda pjesmi Dozivjeti Stotu? Upiši akord u tražilicu i saznaj!

Traženi akord će se prikazati ovdje

Od istog izvođača

Pregledano 33561 puta
Pregledano 43445 puta
Pregledano 2871 puta
Pregledano 2793 puta
Pregledano 17040 puta
Trebaš ritam za ovu pjesmu? Pronađi ga ovdje
Akordi/Tabovi:
Riff 1 (uvod)
|-----------------------------|
|-----------------------------|
|-----------------------------|
|------2-5--------------------|
|--3-3----------2-5------0-1--|
|-----------3-3------1--------|
(u ovom riffu umjesto G na petom polju 4. zice
mozete svirati praznu 3. zicu i umjesto D na
petom polju 5. zice praznu 4. zicu, ali meni
ovako zvuci bolje)

Riff 2
|---------------------------------|
|---------------------------------|
|---------------------------------|
|--5-5-5-5---------------5--5-5-5-|
|--3-3-3-3-3-3-3-3-5-5-5-3--3-3-3-|
|----------1-1-1-1-3-3-3----------|

Riff 3
  (e ole o)
|-------------------------|   |-------------------------------|
|-------------------------|   |-------------------------------|
|-------------------------| x |-------------------------------|
|-----------5-5-5-5-5-5-5-| 3 |--------------5--5-5-5-5-5-5-5-|
|--3--------3-3-3-3-3-3-3-|   |-3-3-3-3-5-5--3--3-3-3-3-3-3-3-|
|--1----------------------|   |-1-1-1-1-3-3-------------------|

Riff 4
|-----|
|-----|
|-----|
|-----|
|--5--|
|--3--|

Tekst :

Prija vam jabuka i Eva i grijeh
Al' bore, bore vam prave suze i smijeh
Ucite jogu, kamasutru, zen
Cuvajte nerve, kosu, zube, ten.

E oe o, e oe o, ...
Al ja vam nisam bas za to
Ne, ne, ne, ne, ne, ne ...

Pazite srce, pluca, holesterol
No sex, no drugs, no rock and roll
Planine, mora, plaze, cisti zrak
Da ne bi lues, psorijaza, rak.

E oe o, e oe o, ...
Al' ja vam nisam bas za to
Ne, ne, ne, ne, ne, ne ...

Mora da je strasna gnjavaza u zivotu
Mora da je grozna gnjavaza u zivotu
Mora da je jeziva gnjavaza u zivotu
Dozivjeti stotu, dozivjeti stotu.

Strasna, strasna gnjavaza u zivotu,
Dozivjeti stotu, dozivjeti stotu.

Krmelja jutra na Kavkazu tamo
Budite vjecno lijepi, fes
Moj kofer skidaj, idite samo
Proteza dusi, make up na les

Eo, eo, eo, eo, eo, eo
Al' ja vam nisam bas za to
Ne, ne, ne, ne, ne, ne ...

Mora da je strasna gnjavaza u zivotu
Mora da je grozna gnjavaza u zivotu
Mora da je jeziva gnjavaza u zivotu
Dozivjeti stotu, dozivjeti stotu.

=> KOMENTAR: Miralem

Mala ispravka
Ako malo bolje poslusas pjesma ide iz "H" a ne iz "C"
a riff ide ovako

(uvod)
|---------------------------|
|---------------------------|
|---------------1-4---------|
|------1-4--2-2-------------|
|--2-2----------------1-2---|
|---------------------------|


hrv - ovo je čisto copy-paste pa provjerite sami zvuči li baš tako
Komentari

eltata kaže:

ej super

25-08-2008 16:18

Schkoonca kaže:

strašna strašna gnjavažu u životu... :D
Odlicno si to napravio, bravo 9/10 (Malo je uvod cudan)

02-01-2010 14:35

Radioactiv kaže:

uvod ide ovako:
D|------1-4------------------|
A|--2-2-----------2----1-1---|
E|----------0-0-4----2-------|
sve ostalo je dobro

29-07-2010 12:33

Radioactiv kaže:

pardon... zadnja nota uvoda je h (2 polje na A žici)... lapsus calami :)

29-07-2010 12:35