Avril Lavigne

I Can Do Better

by:

Pronađi akord!

Ne znaš kako odsvirati neki od akorda pjesmi I Can Do Better? Upiši akord u tražilicu i saznaj!

Traženi akord će se prikazati ovdje

Od istog izvođača

Pregledano 6129 puta
Pregledano 5602 puta
Pregledano 4159 puta
Pregledano 3061 puta
Pregledano 2383 puta
Trebaš ritam za ovu pjesmu? Pronađi ga ovdje
Akordi/Tabovi:
Key: C

Tuning: Standard EADGBe

Intro: Shit!!!, gotta you know!!!

Guitar 1:
e|-------------------------|
B|-------------------------|
G|-5-5-5-5-----------------|
D|-5-5-5-5-5-5-5-5-3-3-3-3-|
A|-3-3-3-3-5-5-5-5-3-3-3-3-|
E|---------3-3-3-3-1-1-1-1-|


Verses:

Guitar 1:
e|-------------------------|
B|-------------------------|
G|-5-5-5-5-----------------|
D|-5-5-5-5-5-5-5-5-3-3-3-3-| (x4)
A|-3-3-3-3-5-5-5-5-3-3-3-3-|
E|---------3-3-3-3-1-1-1-1-|

Guitar 2:
e|-------------------------|
B|-------------------------|
G|-5-5-5-5-4-4-4-4-5-5-5-5-|
D|-x-x-x-x-x-x-x-x-x-x-x-x-| (x2)
A|-3-3-3-3-2-2-2-2-3-3-3-3-|
E|-------------------------|


Refrain: I'm sick of your shit, don't deny you're a waste of time!!!

Guitar 1:
e|---------------------------------|
B|---------------------------------|
G|---------------------------------|
D|-7--7---3--3---7--7---3--3--5--5-|
A|-7--7---3--3---7--7---3--3--5--5-|
E|-5--5---1--1---5--5---1--1--3--3-|

Guitar 2: * means harmonics
e|-5*----5*----5*----5*----|
B|-------------------------|
G|----5*----5*----5*----5*-|
D|-------------------------| (x4)
A|-------------------------|
E|-------------------------|


Chorus: I hate you now so go away from me....

Guitar 1:
e|---------------------------------|
B|---------------------------------|
G|-5-5-5-5-------------------------|
D|-5-5-5-5-5-5-5-5-7-7-7-7-3-3-3-3-| (x2)
A|-3-3-3-3-5-5-5-5-7-7-7-7-3-3-3-3-|
E|---------3-3-3-3-5-5-5-5-1-1-1-1-|

Guitar 2:
e|-------------------------------|
B|-------------------------------|
G|-5--12\10\9\7--10\9\7\5--9\7\5-|
D|-x---x\-x\x\x---x\x\x\x--x\x\x-| (x2)
A|-3--10\-8\7\5---8\7\5\3--7\5\3-|
E|-------------------------------|

Guitar 3: Will enter only at 2nd and 4th choruses.
e|-12----13----15----15----|
B|----13----13----13----13-|
G|-------------------------|
D|-------------------------| (x16)
A|-------------------------|
E|-------------------------|


Bridge: Chordless
What is say (oh! oh!), is what you so
You know that (oh! oh!), coz I always know
Get out of my face, hey! hey!
You know my taste (oh!), hey! hey!
I'm so sick of you!!! (sick of you)
You're all my nuts, I'm bored f*ck you!!!
Get out of my face, hey! hey!
You know my taste, hey! hey! hey! hey! hey! hey!


(Repeat Chorus twice)


Outro: f*ck!!! then Avril laughs

End on C
Komentari
Još nema komentara