Ozzy Osbourne

Miracle man - SOLO

by: ELV!I2

Pronađi akord!

Ne znaš kako odsvirati neki od akorda pjesmi Miracle man - SOLO? Upiši akord u tražilicu i saznaj!

Traženi akord će se prikazati ovdje

Od istog izvođača

Pregledano 1512 puta
Pregledano 955 puta
Pregledano 1107 puta
Pregledano 5165 puta
Pregledano 1764 puta
Trebaš ritam za ovu pjesmu? Pronađi ga ovdje
Miracle Man


Ozzy Osborne - gitara Zakk Wylde
Zakk Solo

Akordi/Tabovi:
E||-------|-------|-------|-------|-------|-------|-------|-------|-------|
B||-------|-------|-------|-------|-------|-------|-------|-------|-------|
G||-------|-------|-------|-------|-------|-------|-------|-------|-------|
D||-------|-------|-------|-------|-------|-------|-------|-------|-------|
A||-------|-------|-------|-------|-------|-------|-------|-------|-------|
E||-------|-------|-------|-------|-------|-------|-------|-------|-------|


-------|-------|-------|-------|-------|-------|-------|-------|-------|-------|
-------|-------|-------|-------|-------|-------|-------|-------|-------|-------|
-------|-------|-------|-------|-------|-------|-------|-------|-------|-------|
-------|-------|-------|-------|-------|-------|-------|-------|-------|-------|
-------|-------|-------|-------|-------|-------|-------|-------|-------|-------|
-------|-------|-------|-------|-------|-------|-------|-------|-------|-------|


-------|-------|-------|-------|-------|-------|-------|-------|-------|-------|
-------|-------|-------|-------|-------|-------|-------|-------|-------|-------|
-------|-------|-------|-------|-------|-------|-------|-------|-------|-------|
-------|-------|-------|-------|-------|-------|-------|-------|-------|-------|
-------|-------|-------|-------|-------|-------|-------|-------|-------|-------|
-------|-------|-------|-------|-------|-------|-------|-------|-------|-------|


-------|-------|-------|-------|-------|-------|-------|-------|-------|-------|
-------|-------|-------|-------|-------|-------|-------|-------|-------|-------|
-------|-------|-------|-------|-------|-------|-------|-------|-------|-------|
-------|-------|-------|-------|-------|-------|-------|-------|-------|-------|
-------|-------|-------|-------|-------|-------|-------|-------|-------|-------|
-------|-------|-------|-------|-------|-------|-------|-------|-------|-------|


-------|-------|-------|-------|-------|-------|-------|-------|-------|-------|
-------|-------|-------|-------|-------|-------|-------|-------|-------|-------|
-------|-------|-------|-------|-------|-------|-------|-------|-------|-------|
-------|-------|-------|-------|-------|-------|-------|-------|-------|-------|
-------|-------|-------|-------|-------|-------|-------|-------|-------|-------|
-------|-------|-------|-------|-------|-------|-------|-------|-------|-------|


-------|-------|-------|-------|-------|-------|-------|-------|-------|-------|
-------|-------|-------|-------|-------|-------|-------|-------|-------|-------|
-------|-------|-------|-------|-------|-------|-------|-------|-------|-------|
-------|-------|-------|-------|-------|-------|-------|-------|-------|-------|
-------|-------|-------|-------|-------|-------|-------|-------|-------|-------|
-------|-------|-------|-------|-------|-------|-------|-------|-------|-------|


-------|
-------|
-------|
-------|
-------|
-------|


  E, za ovo trebaju ekstra brzi prsti                                           
  S                                   S  S  S  S  S  S  S  S  S  S  S  S  S  S 
--6-----------------------------------8-13-------13-------13-------13-------13--
-------------------------------------------11-13----11-13----11-13----11-13----1
--------------------------------------------------------------------------------
--------------------------------------------------------------------------------
--------------------------------------------------------------------------------
--------------------------------------------------------------------------------


   S  S  S  S  S  S  S  S  S  S  S  S  S  S  S  S 
-----11-15----11-15----11-15----11-15----11-15----|
--13-------13-------13-------13-------13-------13-|
--------------------------------------------------|
--------------------------------------------------|
--------------------------------------------------|
--------------------------------------------------|


   S  S  S  S  S  S  S  S  S  S  S  S  S  S  S  S 
-----13-16----13-16----13-16----13-16----13-16-13-|
--14-------14-------14-------14-------14----------|
--------------------------------------------------|
--------------------------------------------------|
--------------------------------------------------|
--------------------------------------------------|


   |--6--|  |--6--|  |--6--|  |--6--|  |---6--|  |---6---| |-3-|     
   S  S  S  S  S  S  S  S  S  S  S  S  S   S  S  S  S    S S S S E   
--18----------16----------18----------16h---------------------------|
-----18-16-------18-16-------18-16--------18------------------------|
-----------17----------17----------17--------16----15brb-L-L-L-L-L--|
------------------------------------------------18------------------|
--------------------------------------------------------------------|
--------------------------------------------------------------------|


  S S  S  S  S  S  S  S  S  S  S  S  S  S  S  S 
--6-8-13-------13-------13-------13-------13----|
---------11-13----11-13----11-13----11-13----11-|
------------------------------------------------|
------------------------------------------------|
------------------------------------------------|
------------------------------------------------|


   S  S  S  S  S  S  S  S  S  S  S  S  S  S  S  S 
-----11-15----11-15----11-15----11-15----11-15----|
--13-------13-------13-------13-------13-------13-|
--------------------------------------------------|
--------------------------------------------------|
--------------------------------------------------|
--------------------------------------------------|


   S  S  S  S  S  S  S  S  S  S  S  S  S  S  S    S     E.     S  E.     S 
-----13-16----13-16----13-16----13-16----13-11br-13-|--11b~----------------|
--14-------14-------14-------14-------14------------|---------13-11b~------|
----------------------------------------------------|-------------------13-|
----------------------------------------------------|----------------------|
----------------------------------------------------|----------------------|
----------------------------------------------------|----------------------|


                                                          |-----3----|     
   E.     S  E.     S     E.     S  Q          Q     Q    Q    Q     Q     
--11b~----------------|--11b~--------------|-------------------------------|
---------13-11b~------|---------13-11b~----|-------------------------------|
-------------------13-|--------------------|-------------------3b----3b----|
----------------------|--------------------|-------------------------------|
----------------------|--------------------|--13b----L----L----------------|
----------------------|--------------------|-------------------------------|


  |-----3-----|     |--3--|    |-3|                                       
  Q     Q     Q     Q     E    E  Q       E     E  E  E    Q     E    E   
---------------------------------------|------------------------11br--L--|
---------------------------------------|--------------1b~--L-------------|
--3b----3b----3b----3b----3br--L--1----|--3brb--L--L---------------------|
---------------------------------------|---------------------------------|
---------------------------------------|---------------------------------|
---------------------------------------|---------------------------------|


  Q.     E  Q    E    E     S S S S S S S S S S S S S S S S 
--------------------9g1--|--1-3-1---1-------1-3-1---1-------|
-----------------L-------|--------4---4-1---------4---4-1---|
-------------------------|----------------3---------------3-|
-------------------------|----------------------------------|
-------------------------|----------------------------------|
-------------------------|----------------------------------|


  S S S S S S S S Q      E  S S    Q.       E    Q     Q         E  Q.       
----0-------0-----6b~----L--L-L-|-----------------------------|--------------|
--4-------4---------------------|--1~-------3~---L~----4~-----|--L--6~-------|
--2-3-x-x-2-3-x-x---------------|--3b~------5b~--L~----6b~----|--L--8b~------|
------x-x-----x-x---------------|-----------------------------|--------------|
--------------------------------|-----------------------------|--------------|
--------------------------------|-----------------------------|--------------|


   Q.        E       Q     Q         E   Q.       H           W                 
------------------|--L------------|--L--11b~------L--------|--L----------------|
---8~--------9~---|-------11~-----|------------------------|-------------------|
--10b~------11b~--|--L----13b~----|--L---------------------|-------------------|
------------------|---------------|------------------------|-------------------|
------------------|---------------|------------------------|-------------------|
------------------|---------------|------------------------|-------------------|


  W                   W                                                         
--L----------------|--L----------------|-------|-------|-------|-------|-------|
-------------------|-------------------|-------|-------|-------|-------|-------|
-------------------|-------------------|-------|-------|-------|-------|-------|
-------------------|-------------------|-------|-------|-------|-------|-------|
-------------------|-------------------|-------|-------|-------|-------|-------|
-------------------|-------------------|-------|-------|-------|-------|-------|


-------|-------|-------|-------|-------|-------|-------|-------|-------|-------|
-------|-------|-------|-------|-------|-------|-------|-------|-------|-------|
-------|-------|-------|-------|-------|-------|-------|-------|-------|-------|
-------|-------|-------|-------|-------|-------|-------|-------|-------|-------|
-------|-------|-------|-------|-------|-------|-------|-------|-------|-------|
-------|-------|-------|-------|-------|-------|-------|-------|-------|-------|


-------|-------|-------|-------|-------|-------|-------|-------|-------|-------|
-------|-------|-------|-------|-------|-------|-------|-------|-------|-------|
-------|-------|-------|-------|-------|-------|-------|-------|-------|-------|
-------|-------|-------|-------|-------|-------|-------|-------|-------|-------|
-------|-------|-------|-------|-------|-------|-------|-------|-------|-------|
-------|-------|-------|-------|-------|-------|-------|-------|-------|-------|


-------|-------|-------|-------|-------|-------|-------|-------|-------|-------|
-------|-------|-------|-------|-------|-------|-------|-------|-------|-------|
-------|-------|-------|-------|-------|-------|-------|-------|-------|-------|
-------|-------|-------|-------|-------|-------|-------|-------|-------|-------|
-------|-------|-------|-------|-------|-------|-------|-------|-------|-------|
-------|-------|-------|-------|-------|-------|-------|-------|-------|-------|


-------|-------|-------|-------|-------|-------|-------||
-------|-------|-------|-------|-------|-------|-------||
-------|-------|-------|-------|-------|-------|-------||
-------|-------|-------|-------|-------|-------|-------||
-------|-------|-------|-------|-------|-------|-------||
-------|-------|-------|-------|-------|-------|-------||




Duration Legend
---------------
W - whole
H - half
Q - quarter
E - 8th
S - 16th
T - 32nd
X - 64th
. - note dotted
|-n-|  - n-tuplets


Tablature Legend (takt 138, guitar Overdriven)
----------------
L - tied note
x - dead note
g - grace note
(n) - ghost note
> - accentuded note
NH - natural harmonic
AH - artificial harmonic
TH - tapped harmonic
SH - semi harmonic
PH - pitch harmonic
h - hammer on
p - pull off
b - bend
br - bendRelease
pb - preBend
pbr - preBendRelease
brb - bendReleaseBend
\n/ - tremolo bar dip
\n - tremolo bar dive
-/n - tremolo bar Release up
/n\ - tremolo bar inverted dip
/n - tremolo bar return
-\n - tremolo bar Release down
S - shift slide
s - legato slide
/ -  slide into from below or out of upwards
\ -  slide into from above or out of downwards
~ - vibrato
W - wide vibrato
tr - trill
TP - tremolo picking
T - tapping
S - slap
P - pop
< - fade in
^ - brush up
v - brush down
Komentari
Još nema komentara