Ramones

Little Bit O'soul

by:

Pronađi akord!

Ne znaš kako odsvirati neki od akorda pjesmi Little Bit O'soul? Upiši akord u tražilicu i saznaj!

Traženi akord će se prikazati ovdje

Od istog izvođača

Pregledano 999 puta
Pregledano 3764 puta
Pregledano 854 puta
Pregledano 2897 puta
Pregledano 1826 puta
Trebaš ritam za ovu pjesmu? Pronađi ga ovdje
Akordi/Tabovi:
Chords:

G5  (355xxx)
B5  (x244xx)
C5  (x355xx)
D5  (x577xx)
F#5 (244xxx)
A5  (577xxx)


Intro:  The song starts with the bass playing this:

G|---------------------|
D|---------------------|
A|------2-3--5-5-------|
E|--3-3----------2-3---|

The bass plays that twice and then the verse starts with the guitar playing the same thing:
   G5 B5 C5  D5 F#5 G5  G5 B5 C5  D5  F#5 G5
E|----------------------------------------------|
B|----------------------------------------------|
G|-----4-5---7-7------------4-5---7-7-----------|
D|-5-5-4-5---7-7-4-5----5-5-4-5---7-7--4-5------|
A|-5-5-2-3---5-5-4-5----5-5-2-3---5-5--4-5------|
E|-3-3-----------2-3----3-3------------2-3------|

The next thing you play is this:

    G5 B5  C5     D5 F#5  G5
E|--------------------------------|
B|--------------------------------|
G|-----4-5-5-5-5--7-7-------------|
D|-5-5-4-5-5-5-5--7-7-4-5-5-5-5---|
A|-5-5-2-3-3-3-3--5-5-4-5-5-5-5---|
E|-3-3----------------2-3-3-3-3---|

Then it goes back to the bass intro and the verse

The last part you need to know is this:

     D5     G5      A5    D5
E|--------------------------------|
B|--------------------------------|
G|-7-7-7----------------7-7-7-7---|
D|-7-7-7-5-5-5-5--7-7-7-7-7-7-7---|
A|-5-5-5-5-5-5-5--7-7-7-5-5-5-5---|
E|-------3-3-3-3--5-5-5-----------|


Just figure out which riffs go where and you are all set
Komentari
Još nema komentara