Thompson

Diva Grabovčeva

by: Ivan Romić

Pronađi akord!

Ne znaš kako odsvirati neki od akorda pjesmi Diva Grabovčeva? Upiši akord u tražilicu i saznaj!

Traženi akord će se prikazati ovdje

Od istog izvođača

Pregledano 50244 puta
Pregledano 16957 puta
Pregledano 3850 puta
Pregledano 11922 puta
Pregledano 28868 puta
Trebaš ritam za ovu pjesmu? Pronađi ga ovdje
Akordi/Tabovi:
Diva Grabovčeva - Thompson

Am       G

Am          G            Am
Bila jednom u tim davnim danima,
C           G      Am
Grabovčeva lijepa kći,

C       Dm     Am    G
gdje iz kamena voda teče
C       G    Am
na Hercegovu tlu,
C       Dm(G)  Am     G
gdje iz kamena raste cvijeće
C        G       F
u sjećanje na nju.

-----0------0----0------------
----1------0----1----1--------
---2------2----2----2-2-------
--3------3----3----3----------
------------------------------
------------------------------

Dušman tuče, mlado tijelo ubija,
u oku joj gasi nevin sjaj,
molitva je na usnama,
bila joj za kraj.
Umre tijelo, al' duša ode
u Gospin zagrljaj.

C     Dm         
Diva, Diva Grabovčeva,
G                C
zauvijek na nebu sja.
Am   Dm
Teče voda Hercegova,
F           G       Am
tamo gdje bi njezin kraj.


Solo:
----------------------------------------------------------------------------
------------------------ 5/3-----------------------------------------------
-------4/5-------4--5 ------ 5--4----- 4--5---------4----5/4-------------
---7---------7-----------------------7--------5--7------------- 7--5-----
------------------------------------------------------------------------------
-----------------------------------------------------------------------------

Pogledaj u oči našim ženama,
i kad vidiš jedan divan sjaj,
to je Diva Grabovčeva,
još je ona živa znaj.
Teče voda Hercegova,
tamo gdje bi njezin kraj.
Diva, Diva Grabovčeva,
zauvijek na nebu sja.
Teče voda Hercegova,
tamo gdje bi njezin kraj.
Surovo je ovo vrijeme, ljudi zli,
vlada opći nespokoj,
ja se osjećam bolje kada pjevam ti o njoj,
o toj ženi, čistoj, hrabroj,
Divi Grabovčevoj.
Diva, Diva Grabovčeva,
zauvijek na nebu sja.
Teče voda Hercegova,
tamo gdje bi njezin kraj.
Komentari

zec kaže:

odsvirao sam pjesmu i zvuči predobro,preporučam svakom ko sluša Thompsona i ko zna svirat

03-07-2007 15:01

herojulice kaže:

mogu napisat i razdvojeno,baš ko original,ne znam hoće li mi stavit. mučim se još sa moj dida i ja ,ostalo sam skinuo. ne bi mi koja pohvala ili kritika loše došla, Ivan

03-07-2007 19:32

GoFgO kaže:

Ma samo naprijed Ivek ! Svaka cast ! you rock ! :dirol:rozi:thumbsup:thrasher

04-07-2007 02:04

Viktor kaže:

Baš super zvuči na gitari!!!!!!!
Super pjesma.

Pa di ih vadiš?
Jel ih skidaš po sluhu il odnekud?
Ja nisam nigdje mogo pronać do prije 20 dana od Thompsona nijednu pjesmu!

05-07-2007 11:09

Viktor kaže:

E kad ide kitica Diva, Diva Grabovčeva, Dm treba ič kod Grabovčeva, a ne na kraju i tako u cijeloj toj kitici.

05-07-2007 11:44

GoFgO kaže:

Ma dobro, to je zbog prebacivanja texta iz jednog kod-a u drugi. vazno da su akordi kak treba :)

05-07-2007 13:52

herojulice kaže:

Skidam sve po sluhu,ima još dosta pjesama koje želim stavit. thompsona nema nigdje osima onih par starih. na 2akordi ga ne daju, na drugim stranicama ga ignoriraju. za Dm ti ne mogu riječima objasnit kak da odsviraš,trebalo bi napravit u gp.

05-07-2007 14:54

Viktor kaže:

Naravno da ga nema u na 2akordi i takvim stranicam kad su to jugoslavenske.

06-07-2007 01:29

GoFgO kaže:

da kod njih nema ni skore, nit let 3 nit tomsona

06-07-2007 01:39

Viktor kaže:

Pa kad su jugoslavenci, a daj jel zna tko onu solažu između kitica?

06-07-2007 12:02

herojulice kaže:

solo

----------------------------------------------------------------------------
------------------------ 5/3-----------------------------------------------
-------4/5-------4--5 ------ 5--4----- 4--5---------4----5/4-------------
---7---------7-----------------------7--------5--7------------- 7--5-----
------------------------------------------------------------------------------
-----------------------------------------------------------------------------

06-07-2007 15:57

Viktor kaže:

Tooo, dobar si!

06-07-2007 16:06

thompsonovac kaže:

Svaka čast. To je bilo lijepo od tebe. Već sam naučio sve svirati što si stavio! Ha ha! Ajd živio mi 300 godina!

13-07-2007 13:51

herojulice kaže:

fala,fala. ako netko želi da još neku probam tabat nek mi javi

14-07-2007 23:08

Viktor kaže:

Jel bi moga skinut OPASNO JE LJUBITI?:)

18-07-2007 19:42

PERFORMER kaže:

Ej ivane svaka čast pogotovo za solo,malo sam ga preradio da bude isto ali malo je lakše za svirat pa če ga neki početnici u sviranju lakše naučit svirat,ali za akorde svaka čast majstore!!
Ajde molim te probaj skinut solo od moj dida ja sam ga probavo par puta skinut ali nikako neide baš da bude točno,evo ga prerađeni solo od dive:

Solo:
-----------------------------------------------------------------------------
------------------------ ----------------------------------------------------
----------------------9/7--- --------- --------------------------------------
---7---9/10--7--9--10--------9--10--7--9--10----5--7-9---9/10-------7--5-----
-----------------------------------------------------------------------------
-----------------------------------------------------------------------------

26-07-2007 15:43

PERFORMER kaže:

Samo ovo na d žici (9/7) odsvirajte nakon što odsvirate 10 polje na d žici.nadam se da kužite jer mi nije postano onako kako sam htio

26-07-2007 15:47

frunc kaže:

zato služi kod

Akordi/Tabovi:
Solo:
-----------------------------------------------------------------------------
------------------------ ----------------------------------------------------
----------------------9/7--- --------- --------------------------------------
---7---9/10--7--9--10--------9--10--7--9--10----5--7-9---9/10-------7--5-----
-----------------------------------------------------------------------------
-----------------------------------------------------------------------------

27-07-2007 16:16

GoFgO kaže:

Hehe, dada,reci im frunc- treba citat FAQ !!!!

27-07-2007 18:14

PERFORMER kaže:

ok hvala za ispravak tek sam se registriro pa nisam baš upućen u te gluposti ali glavno da se kuži šta sam htio napisat

28-07-2007 22:53

frunc kaže:

hehe
nisan ni ja cita FAQ nego san gleda po stranici pa san svatija da tako triba
iako mislin da bi bilo jednostavnije prominit format slova na stranici pa nebi tribalo tako stavljat

29-07-2007 13:53

zope kaže:

jel mi moze netko objasnit tablature

10-10-2008 12:49

Dr.House kaže:

joj joj joj joj kako je ovo dooobbbrrooooooo

10-12-2008 19:17

juraj97 kaže:

super je
:thrasher

17-02-2009 22:22

pero555 kaže:

odlican ti je solo samo sam si ja jos dodao nakon tog soloa ovo

----------------------------------------------------------------------------
------------------------ 10/8-----------------------------------------------
-------9/10-------9--10 ------ 10--9----- 9--10---------9----10/9-------------
---12---------12-----------------------12--------10--12------------- 12--10-----
------------------------------------------------------------------------------
-----------------------------------------------------------------------------

isto je ko prvi solo sam poviseno i meni zvuci super...ak nekog zanima nek proba =)=)=)

25-07-2009 00:27

FlasH kaže:

Ovo je zakon svaka cast :)

17-09-2009 20:06

matej_20 kaže:

ovo je predobro :rockon

04-03-2010 20:25

stivican kaže:

daj ritam nek netko napise ako nije problem

22-05-2014 15:43