Prljavo Kazalište

Ma Kog Me Boga Za Tebe Pitaju

by:

Pronađi akord!

Ne znaš kako odsvirati neki od akorda pjesmi Ma Kog Me Boga Za Tebe Pitaju? Upiši akord u tražilicu i saznaj!

Traženi akord će se prikazati ovdje

Od istog izvođača

Pregledano 3638 puta
Pregledano 39309 puta
Pregledano 5701 puta
Pregledano 19929 puta
Pregledano 93677 puta
Trebaš ritam za ovu pjesmu? Pronađi ga ovdje
Akordi/Tabovi:
C               G           Am   F  G
Ma kog me Boga za tebe pitaju
C              G                Am   F  G
Spustam glavu, brisem finu prasinu
C                G           Am  F  G
I rijetke ptice pjevajuci umiru.

Ma kog me boga za tebe pitaju
U sebi molim da me suze ne izdaju
I strasno mrzim Romea i Juliju
Sve mi stvari smrde sad na prevaru.

C G   Am          F           G   C
Ooo, ooo, napolju hladne kise padaju ...

Ma kog me boga za tebe pitaju
I suze mi na oci tjeraju
I strasno mrzim Romea i Juliju
Sve mi stvari smrde sada na prevaru

Ooo, ooo, napolju hladne kise padaju ...
Komentari

drinker kaže:

tu fali pol teksta

28-01-2009 14:16

krešo kaže:

zato je super za sviranje

07-03-2009 16:32

jusuf kaže:

opet falili sta je ovo ja ulazim tam, u neku pismu i ti pisu da je test falel

05-07-2009 13:10

Goran_F2 kaže:

falilo pol teksta ili ne, akordi su krivi, idu C Em Am Fadd9 G

22-10-2009 18:44

kookos kaže:

http://www.glazbeni-forum.com/showthread.php?t=37065
Evo, ak Dragan veli da ide C G a F onda si ti sinko operi vuva.
Usput rečeno, za pratnju na tulumima i sl ovi gore akordi su sasvim ok, a ak želite nekaj više, poslušajte pjesmu i probajte malo razlagati te akorde da dobijete točno onak kak Jajo i društvance sviraju.
Po meni bi išlo (C G G7 a Fadd9 G)

22-10-2009 23:01

Goran_F2 kaže:

Akordi/Tabovi:
E||-----------3--------3-----|-----------3--------1-----|
B||--------------1--------1--|--------------0--------0--|
G||--------0--------0--------|--------0--------0--------|
D||-----2--------------------|-----2--------------------|
A||--3-----------------------|--2-----------------------|
E||--------------------------|--------------------------|

-----------0--------------|-----------3-----------3--||
--------------1-----1-----|--------1-----------------||
--------2--------2-----2--|-----2--------------------||
-----2--------------------|--3-----------------0-----||
--0-----------------------|-----------------2--------||
--------------------------|--------------3-----------||

ovo svira na početku,akord u 2. taktu je jako sličan Em, ali poslje svira C5 G5 A5 F5 G5
Tako da je ipak G, a ne Em. Moja greška :oops

31-10-2009 21:02

itchy2005 kaže:

uzalud vam trud sviraci... piano je vrlo dominantan u toj pjesmi i nesvira uvjek tonove "trenutnog akorda". to opisivat samo s akordima kao pokusavat turat cetvrtasto u okruglo. Akkordi su OK. ko hoce to dalje razceprkat (mora mu bit dosadno :-) ) mora svaki ton po ton pratit.

13-03-2010 13:10