Opća Opasnost

U tvojim ocima

by:

Pronađi akord!

Ne znaš kako odsvirati neki od akorda pjesmi U tvojim ocima? Upiši akord u tražilicu i saznaj!

Traženi akord će se prikazati ovdje

Od istog izvođača

Pregledano 19467 puta
Pregledano 9092 puta
Pregledano 4579 puta
Pregledano 12753 puta
Pregledano 4453 puta
Trebaš ritam za ovu pjesmu? Pronađi ga ovdje
Akordi/Tabovi:
intro, stih, outro:
     cis              cis/H            cis/A            cis/Gis
e|----------------- ---------------- ---------------- ----------------
B|------5-------5-- -----5-------5-- -----5-------5-- ---------5------
G|----------6------ ---------6------ ---------6------ -------------6--
D|----------------- ---------------- ---------------- -----6----------
A|---4------------- ---------------- ---------------- ----------------
E|----------------- --7------------- --5------------- --4------------- /X6
     H                A                H                     A     Gis
e|----------------- ---------------- ---------------- ----7------5----
B|----------------- ---------------- ---------------- -7-----5------4-
G|----------------- ---------------- ---------------- ---8-----6------
D|-----7h9p7------- ------7-s-9--7-- ----7h9p7------- ----------------
A|----------------- ----7----------- ---------------- ----------------
E|---7-------7h9p7- --5------------- --7-------7h9p7- -7-----5------4-

stih:
Kad si obecala
da ces uvijek biti tu
Ljeto je proslo, vidis li,
donijelo kisu jesenju
Nisam smio pustit te
Jer srusilo se sve

ref:
     cis    A       H   E
Reci mi dal ponekad tugujes
    fis    A    Gis     H
Dok gledas more tones u san
    cis    A         H    E
Nekada dal sjetis se zakletvi
      fis         A        Gis   cis
Nasih ludih snova sada kad otisla si

stih:
Ljubav sto si davala,
Htio bih ipet vratiti
Sve sto smo dijelili
Sada je dio proslosti
Necu da zaboravim,
Volio sam te

ref:
Reci mi dal ponekad tugujes
Dok gledas more tones u san
Nekada dal sjetis se zakletvi
Nasih ludih snova sada kad otisla si

solo:

ref:
Reci mi dal ponekad tugujes
Dok gledas more tones u san
Nekada dal sjetis se zakletvi
      fis         Gis
Nasih ludih snova

ref:
U ocima tugu ti ne vidi
Da si sama duso znam samo ja
Snovima htjela bi pobjeci
O znam te dobro sada kad otisla si

outro:
Komentari

fanzy kaže:

ne zvuci bas najbolje, pogledajte John Norum-In your eyes tabove, onako je pravilno ja mislim

02-04-2012 23:34