Parni Valjak

Stojim Već Satima

by:

Pronađi akord!

Ne znaš kako odsvirati neki od akorda pjesmi Stojim Već Satima? Upiši akord u tražilicu i saznaj!

Traženi akord će se prikazati ovdje

Od istog izvođača

Pregledano 3454 puta
Pregledano 1778 puta
Pregledano 2429 puta
Pregledano 12231 puta
Pregledano 24078 puta
Trebaš ritam za ovu pjesmu? Pronađi ga ovdje
Akordi/Tabovi:
PARNI VALJAK: STOJIM VEC SATIMA



(Intro)

   A               E                  F#m             D
E--------------------------------- ----------------------------------
B--------------------------------- ----------------------------------
G--------------------------------- ----------------------------------
D-2-----2-4-----2----------------- ------------------7-----7-6-----4-
A-0-----0-0-----0-2-----2-4-----2- --4-----4-4-----2-5-----5-5-----0-
E-----------------0-----0-0-----0- --2-----2-2-----0-----------------


   A                                 E
E--------------------------------- ----------------------------------
B--------------------------------- ----------------------------------
G--------------------------------- ----------------------------------
D-2-----2-4-----2-2-----2-4-----2- ----------------------------------
A-0-----0-0-----0-0-----0-0-----0- --2-----2-4-----2-2-----2------2--
E--------------------------------- --0-----0-0-----0-0-----0--3-4-0--


   A               E                 F#m             D
E--------------------------------- ----------------------------------
B--------------------------------- ----------------------------------
G--------------------------------- ----------------------------------
D-2-----2-4-----2----------------- ------------------7-----7-6-----4-
A-0-----0-0-----0-2-----2-4-----2- --4-----4-4-----2-5-----5-5-----0-
E-----------------0-----0-0-----0- --2-----2-2-----0-----------------


   A               E                 A               E
                                                             Stojim vec
E--------------------------------- ----------------------------------
B--------------------------------- ----------------------------------
G--------------------------------- ----------------------------------
D-2-----2-4-----2----------------- --2-----2-4-----2-----------------
A-0-----0-0-----0-2-----2-4-----2- --0-----0-0-----0-2---------------
E-----------------0-----0-0-----0- ------------------0---------------


   A               E                 F#m             D
   sa     ----  tima     pred njenim vra  ------  tima
E--------------------------------- ----------------------------------
B--------------------------------- ----------------------------------
G--------------------------------- ----------------------------------
D-2-----2-4-----2----------------- ------------------7-----7-6---5-4-
A-0-----0-0-----0-2-----2-4-----2- --4-----4-4---3-2-5-----5-5---5-5-
E-----------------0-----0-0-----0- --2-----2-2---2-2-----------------


   A                                 E
            zvono   stiscem  stoti   put                     stojim vec
E--------------------------------- ----------------------------------
B--------------------------------- ----------------------------------
G--------------------------------- ----------------------------------
D-2-----2-4-----2-2-----2-4-----2- ----------------------------------
A-0-----0-0-----0-0-----0-0-----0- --2-----2-4-----2-2-----2-4-------
E--------------------------------- --0-----0-0-----0-0-----0-0---3-4-
                                                           1.<=========

   A               E                 F#m             D
   sa     ----  tima     pred njenim vra  ------  tima           ne
E--------------------------------- ----------------------------------
B--------------------------------- ----------------------------------
G--------------------------------- ----------------------------------
D-2-----2-4-----2----------------- ------------------7-----7-6-----4-
A-0-----0-0-----0-2-----2-4-----2- --4-----4-4---3-2-5-----5-5-----5-
E-----------------0-----0-0-----0- --2-----2-2---2-2-----------------


   A               E                 A               E
  otvara         a znam       da je  tu
E--------------------------------- ----------------------------------
B--------------------------------- ----------------------------------
G--------------------------------- ----------------------------------
D-2-----2-4-----2----------------- --2-----2-4-----2-2-----2-4-----2-
A-0-----0-0-----0-2-----2-4-----2- --0-----0-0-----0-0-----0-0-----0-
E-----------------0-----0-0-----0- ----------------------------------


(Chorus)

   D                                 A
    Lo - vu mi   potrosila           ziv - ce mi   istrosila
E--------------------------------- ----------------------------------
B--------------------------------- ----------------------------------
G-2-----2-4-----2-2-----2-4-----2- ----------------------------------
D-0-----0-0-----0-0-----0-0-----0- --2-----2-4-----2-2-----2-4-------
A--------------------------------- --0-----0-0-----0-0-----0-0---3-4-
E--------------------------------- ----------------------------------


   D                                 E
   sve sto zna      ??????       od  me - ne je   naucila
E--------------------------------- ----------------------------------
B--------------------------------- ----------------------------------
G-2-----2-4-----2-2-----2-4-----2- ----------------------------------
D-0-----0-0-----0-0-----0-0-----0- ----------------------------------
A--------------------------------- --2-----2-4-----2-2---------------
E--------------------------------- --0-----0-0-----0-0---------------


(Solo)

                                     A              E
E--------------------------------- ----------------------------------
B--------------------------------- ----------------------------------
G--------------------------------- --6-----------7-------------------
D-------------------------------7- ------------------6-------------7-
A-------------------------7--9---- --------------------------7--9----
E--------------------------------- ----------------------------------


   F#m             D                 A
E--------------------------------- --------------------------9-------
B--------------------------------- ----------------------------------
G-6-----9-6-------9--------------- --6------------7--6---------------
D------------9--7---7-----------7- ----------------------------------
A-------------------------7--9---- ----------------------------------
E--------------------------------- ----------------------------------


   E                                 A               E
E-7-----------14-12--------------- ----------------------------------
B--------------------------------- ----------------------------------
G------------13------------------- --6-------------7-6---------------
D-------------------------------7- --------------------------------7-
A-------------------------7--9---- --------------------------7--9----
E--------------------------------- ----------------------------------


   F#m             D                 A               E
E--------------------------------- ----------9------12-11-10-9-------
B--------------------------------- --7-10-10----7-10-----------13-12-
G-6-----9-6-------9--------------- ----------------------------------
D------------9--7-----7----------- ----------------------------------
A--------------------------------- ----------------------------------
E--------------------------------- ----------------------------------


   A               E
E---------------------------------
B-10-----------10-8---------------
G------------11-------------------
D---------------------------------
A---------------------------------
E---------------------------------


(Chorus)
Komentari

iva_honey kaže:

e ona riječ za koju ne znaš koja je.... to pjeva SICAPRA

13-02-2010 15:01

Pick85 kaže:

Kako ide ritam za ovu pjesmu?

19-08-2011 12:38