Plavi Orkestar

Sava Tiho Teče

by:

Pronađi akord!

Ne znaš kako odsvirati neki od akorda pjesmi Sava Tiho Teče? Upiši akord u tražilicu i saznaj!

Traženi akord će se prikazati ovdje

Od istog izvođača

Pregledano 8636 puta
Pregledano 10909 puta
Pregledano 4494 puta
Pregledano 24364 puta
Pregledano 11951 puta
Trebaš ritam za ovu pjesmu? Pronađi ga ovdje
Akordi/Tabovi:
e----------------------------------------------------------
H-5-3-5-6--5-6--10/8-8/5-5--10--8--5--3-1-3-5-3-1-0h1p0----
G-------------------------------------------------------2--
D----------------------------------------------------------
A----------------------------------------------------------
E----------------------------------------------------------

e----------------------------------------------
H-5-3-5-6--5-6--10/8-8/5-5--10--8--5--3-1-3----
G-------------------------------------------4--
D----------------------------------------------
A----------------------------------------------
E----------------------------------------------

               Am         Dm
        Pokraj Save breze male
              G       Am
        Tvoje oci vesele
                       Dm
        Ove noci cudno sjaje
             F    E    Am       
        Mene vise ne vole

        Nije meni sto te moram
        Sto te moram gubiti
        Vec je meni da'l ces moci
        Poslije mene ljubiti

refren:
                Dm   G
                Sava tiho tece
                Am
                Zadnje nam je vece
                E               Am     A
                Draga ostala si sama

                Dm   G
                Sava tiho tece
                Am
                Zadnje nam je vece
                E     G          Am
                Draga postala si dama

        Slomile se nase grane
        Vise nemam prava ja
        Na te tvoje oci male
        Nisi moja curica

        Nije meni sto ja necu
        Vise tebe vidjeti
        Vec je meni nece mi se
        Nove oci svidjeti
Komentari

Yamaha.C-70 kaže:

intro ti ne valja...
Nije original

29-05-2009 21:40

Yamaha.C-70 kaže:

Stavio sam novi intro

30-05-2009 18:31

trulex_bobo kaže:

kako se cita ovaj uvodni solo??

28-11-2009 00:49

kiba kaže:

Yamaha.C-70 gde si stavio :D

02-01-2010 00:23

Zero_One13 kaže:

ok je....

17-03-2010 21:45

bojanvoligitaru kaže:

mozel neko da mi rekne ritam molim vas :D

31-08-2010 19:26

haris kaže:

Ne može.

31-08-2010 19:40

SladjoK kaže:

hahahahahah

07-03-2012 13:52

mile202 kaže:

Akordi/Tabovi:
Dm   G
                Sava tiho tece
                Am
                Zadnje nam je vece
                E               Am     A
                Draga ostala si sama


Mislim da bolje pase A7 na kraju!

19-06-2012 18:35

mile202 kaže:

uvod i nije los,al nije ni dobar!Moze to svakako bolje!

19-06-2012 18:37

escobar7 kaže:

escobar7

-------a----------d
Pokraj Save breze male
------G7------C--E7
tvoje oci vesele
----a----------d
ove noci cudno sjaje
-----F----E----a
mene vise ne vole

Nije meni sto te moram

sto te moram gubiti

vec je meni, dal' ces moci

poslije mene ljubiti

d---------------a
Sava tiho tece, zadnje nam je vece
E7---------------a----A7
draga, ostala si sama
d----G----------C------a
Sava tiho tece, zadnje nam je vece
E7----------------F
draga, postala si dama

19-06-2012 19:26

mile202 kaže:

Escobar7: Ovo je dobro!

19-06-2012 21:41

Shicra kaže:

evo ispravljenog uvoda:


e-------------------------------------------------------------------
H--------1--3--5-6--10/8-8/5-5--10--8--5--3-1-3-5-3-1-0h1p0---------
G--2--4-------------------------------------------------------4--2--
D-------------------------------------------------------------------
A-------------------------------------------------------------------
E-------------------------------------------------------------------

i samo vrtite :D

10-09-2012 23:49

Shicra kaže:

nadam se da se sad vidi lepo


e-------------------------------------------------------------------
H--------1--3--5-6--10/8-8/5-5--10--8--5--3-1-3-5-3-1-0h1p0---------
G--2--4-------------------------------------------------------4--2--
D-------------------------------------------------------------------
A-------------------------------------------------------------------
E-------------------------------------------------------------------

10-09-2012 23:50

XSARA kaže:

Shicra,možda se sada vidi dobro:
Akordi/Tabovi:
e-------------------------------------------------------------------
H--------1--3--5-6--10/8-8/5-5--10--8--5--3-1-3-5-3-1-0h1p0---------
G--2--4-------------------------------------------------------4--2--
D-------------------------------------------------------------------
A-------------------------------------------------------------------
E-------------------------------------------------------------------

11-09-2012 16:32

Shicra kaže:

`fala :D

11-09-2012 17:54

TFgamer152 kaže:

e slusaj uvod mi nije nesto al akordi extra !!!:)

11-03-2013 12:20

datguitar kaže:

Akordi su ok samo mi ne stoji ovo G ovdje ..

E G Am
Draga postala si dama

22-11-2013 15:44

solomun kaže:

datguitar- a što je napravio escobar7
a ti sad general poslje bitke.

22-11-2013 16:10

datguitar kaže:

nisam ja nikakav general poslje bitke.
pogledaj sta sam ja napisao a pogledaj sta je esco.

25-11-2013 19:50

solomun kaže:

Je u pravu si tu dođe još i G# i A pa tek onda Am.

25-11-2013 20:02