Ramones

I Wanna Live

by: Armstrong

Pronađi akord!

Ne znaš kako odsvirati neki od akorda pjesmi I Wanna Live? Upiši akord u tražilicu i saznaj!

Traženi akord će se prikazati ovdje

Od istog izvođača

Pregledano 723 puta
Pregledano 2017 puta
Pregledano 2393 puta
Pregledano 4957 puta
Pregledano 856 puta
Trebaš ritam za ovu pjesmu? Pronađi ga ovdje
Akordi/Tabovi:
Tuning: Standard

  Intro:
e|---------------------------|
B|------------------1------3-|
G|------------0----0-----2---| X4
D|-----2----0----------0-----|
A|---2----------3------------|
E|-0-----3-------------------|
  Slight P.M.>>>>>>>>>>>>>>>>

  Verse:
e|------------------------------------|
B|------------------------------------|
G|------------------------------------|
D|-9-999--12-121212--10-1010--12-1212-|
A|-7-777--10-101010--10-1010--12-1212-|
E|--------------------8--8-8--10-1010-|
  P.M>>>>>>>>>>>>>>>>>>>>>>>>>>>>>>>>

  Bridge:2X                                           To chorus
e|---------------------------------------------------|-------------|
B|---------------------------------------------------|-------------|
G|-----------------1212121212121212------------------|-------------|
D|1010101010101010-1212121212121212-1212121212121212-|1212-1212-12-|
A|1010101010101010-1010101010101010-1212121212121212-|1212-1212-12-|
E|-8-8-8-8-8-8-8-8-1010101010101010-1010101010101010-|1010-1010-10-|

  Chorus:               To solo
e|---------------------|--------|
B|---------------------|--------|
G|-----------5-55-7-77-|-999999-|
D|-2-22-5-55-5-55-7-77-|-999999-|
A|-2-22-5-55-3-33-5-55-|-777777-|
E|-0-00-3-33-----------|-000000-|

  Bridge/Solo:
e|---------------------------------------------------|-------------|
B|---------------------------------------------------|-------------|
G|-----------------1212121212121212------------------|-------------|
D|1010101010101010-1212121212121212-1212121212121212-|1212-1212-12-|
A|1010101010101010-1010101010101010-1212121212121212-|1212-1212-12-|
E|-8-8-8-8-8-8-8-8-1010101010101010-1010101010101010-|1010-1010-10-|


  Chorus to coda:
e|-----------------------|
B|-----------------------|
G|-----------5-55-7-77-9-|
D|-2-22-5-55-5-55-7-77-9-|
A|-2-22-5-55-3-33-5-55-7-|
E|-0-00-3-33-----------0-|

Verse:
I've been thinking it over
And I know just what to do
I've been thinking it over
And I know I just can't trust myself
I'm a Gypsy prince
Covered with diamonds and jewels
But then my lover exposes me
I know I'm just a d*amn fool

Bridge:
I give what I've got to give
I give what I need to live
I give what I've got to give
It's important if I want to live

Chorus:
I wanna live
I want to live my life
I wanna live
I want to live my life

As I load my pistol
Fine German steel
I never thought I'd be so down and out
Having my last meal
But I know I can do it
It just took a few years
As I execute my killer
The morning is near

I give what I've got to give
I give what I need to live
I give what I've got to give
It's important if I want to live

Chorus
Komentari
Još nema komentara