Parni Valjak

Zagreb Ima Isti Pozivni

by:

Pronađi akord!

Ne znaš kako odsvirati neki od akorda pjesmi Zagreb Ima Isti Pozivni? Upiši akord u tražilicu i saznaj!

Traženi akord će se prikazati ovdje

Od istog izvođača

Pregledano 7788 puta
Pregledano 12078 puta
Pregledano 6298 puta
Pregledano 15772 puta
Pregledano 15574 puta
Trebaš ritam za ovu pjesmu? Pronađi ga ovdje
Akordi/Tabovi:
E                          B
   Sjeti se okreni list pod slovoma
          E                                   B
   Ponekad sjeti se i biraj broj kraj mojeg imena
   A                   B
   Nazovi da ti cujem glas
            E            C#m
   Nazovi kazi mi kako si
    A            B          E
   Zagreb ima isti pozivni

     E                                         B
   Pricaj mi sto se kod tebe nocu desava
       E                                         B
   Pricaj mi dal jos puse vjetar s istoka
   A                 B
   I jesi li primjetila
           E            C#m
   Da se klinci mijenjaju
              D                   B           E
   Da se nakon vojske kuci vracaju

               (SOLO)

    E                                 B
   Sjeti se ima nas sto isto mislimo
      E                                  B
   Sjeti se istim stvarima se smijemo
   A                   B
   Nazovi da ti cujem glas

   E            C#m
   Nazovi kazi mi kako si
    A            B        E
   Zagreb ima isti pozivni.


   C#m                   B
   Jos se sjecam onog vremena
   C#m                       B
   Tvojih ruku oko mojih ramena
   E                                     B
   U usima mi zvoni tvoj smijeh

   C#m                 B
   Da li ti brige miruju
   C#m                                 B
   I kako novi ________ prodaju
   E                                                       B
   Prije dva tri dva osam osam sedam okreni

   041

                  (SOLO)

   E                          B
   Sjeti se okreni list pod slovoma
          E                                   B
   Ponekad sjeti se i biraj broj kraj mojeg imena
   A                   B
   Nazovi da ti cujem glas
            E            C#m
   Nazovi kazi mi kako si
    A            B        E
   Zagreb ima isti pozivni.            (SOLO)   end.

SOLO:
[---------------------------------------------------------------------------------]-----------------------------------
[-----10----9-----------------10---9---------------------9-------------------]-------------------------9-----------
[-----------------9------------------------9---------------------11------------]------------9----11--------11--------
[---------------------9-------------------------9-------------------------------]--9-----11--------------------------
-[--------------------------------------------------------------------------------]--------------------------------------
[-------------------x2------REPEAT THISPART-----x2-------------]---------------------------------------

-
--------------9-------------------------------------------------------------------------------------------------------------------------------------
---------9----- -12----11----9---------9---------------------10---9-------------10----9-------9--------9------------------------------------
--11-------------------------------11----------9--------------------------9-------------------11------11-------9---------------9---11----9----
---------------------------------------------------------9----------------------9----------------------------------------9-- -11---------------                      -
------------------------------------------------------------------------------------------------------------------------------------------------
------------------------------------------------------------------------------------------------------------------------------------------------------
Komentari

rudica kaže:

Najvjerojatnije original dolazi iz drugačijeg formata, harme nepravilno pozicionirane.
Prilikom prijenosa obrati pažnju na finalnu izvedbu !!!

15-06-2007 09:07

GoFgO kaže:

Rudi ! print verzija je bolja onak 90% :o)

15-06-2007 14:25

Elvis Presley kaže:

ne valja ovo

18-12-2009 19:38

sgn kaže:

Valja ako umjesto B sviras H i to u barovima....tako je lakse...dajte molim vas napravite pjesme od suho grlo nosa ja vam dam akorde ako treba...moj e-mail je hado95@hotmail.com

14-03-2010 23:24

martinkey kaže:

ekipa početnici, ovu pjesmu transformirajte za ton i pol i jako lagano za odsvirati iz C tonaliteta, krenete sa G, znači (E-G,A-C,H-D,C#m-Em,D-F) meni kao baritonu je i u ovom tonalitetu puno lakše za otpjevati...

20-09-2012 16:23