Parni Valjak

Ljubavna

by:

Pronađi akord!

Ne znaš kako odsvirati neki od akorda pjesmi Ljubavna? Upiši akord u tražilicu i saznaj!

Traženi akord će se prikazati ovdje

Od istog izvođača

Pregledano 21411 puta
Pregledano 15990 puta
Pregledano 26377 puta
Pregledano 2704 puta
Pregledano 9243 puta
Trebaš ritam za ovu pjesmu? Pronađi ga ovdje
Akordi/Tabovi:
Hm                               A
Naoružan samo smješkom hodam ja kroz grad,
Em                             Hm
zvona zvone, nedjelja je, gdje ja pripadam

Hm                       D            A
Moje ime nije važno jer je namjera
Em                       Hm
to što čini razliku od čovjeka do čovjeka.

Hm                               D             A
Nemam nikog da me vodi, to mi ne treba,
Em                             Hm
jer još uvijek moja glava meni pripada.

G                Hm G                 Hm
Moraš prvo puzati da bi znao hodati
G                           A
A kad te stvarno sve uza zid pritisne, digni glavu.
D      A           Em             Hm
Nedaj se, pjevaj pjesme ljubavne,
D     A          G            Hm
Zaplači, kad te nitko ne vidi.

Naoružan samo smješkom hodam ja kroz grad
Zvona zvone, nedjelja je, gdje ja pripadam.
Bole riječi, boli vrijeme, bole sudbine,
daj još rundu prijatelju, kome je do istine.

Em              Hm     Em       Hm
A-ja-ja-ja-ja-ja-ja, a-ja-ja-ja-ja-i,
Em             Hm       G A Hm
a-ja-ja-ja-ja-ja-ja
Komentari

juraj97 kaže:

cool
:guitarist:guitarist:thrasher:thrasher:thrasher:thrasher

03-03-2009 15:50

steel123 kaže:

Super svaka cast!

19-12-2009 20:06

stagg s 300 kaže:

Super!

27-02-2010 23:34

guitar-men kaže:

....zna mozda ko gdje se može nać solaža za ljubavnu...??

22-03-2010 18:11

bass player kaže:

predobro!!!!

07-04-2010 14:57

MadeInStc kaže:

e|---------------------------------------------------------------|
B|---------------------------------------------------------------|
G|----------------------*----------------------------------------|
D|-12-12-12-14-14-16~---12-11-12-11-7/9--------------------------|
A|---------------------------------------------------------------|
E|---------------------------------------------------------------|

e|---------------------------------------------------------------|
B|----12----14----15~---15/14—12h14—12h14—12/10h12-10------------|
G|-11----11----11-------------------------------------11---------|
D|---------------------------------------------------------------|
A|---------------------------------------------------------------|
E|---------------------------------------------------------------|

e|----------------------**-----------------------17--------------|
B|-15/17-17b-12h15p12—21bb-19-17-------------17b-----17b-15------|
G|-------------------------------19-16h19p16---------------------|
D|---------------------------------------------------------------|
A|---------------------------------------------------------------|
E|---------------------------------------------------------------|

*volume potenciometar pojačavate od nule dok se ne čuje
**kad se benda 21 polje B žice onda tako bendanu žicu opet okinete, nisam to drugčije znao napisat :)

23-05-2010 21:40

Dark Master kaže:

zna li iko onu solazu u uvodu?

29-06-2010 00:27

mili_bu kaže:

KAKO IDE RITAM...
nemojte mi rei slusaj pesmu izvalices,jer je slusam vec dosta dugo,a pocetnik sam :)))
pa ako moze pomoc

29-10-2010 18:57

Markosmiljaaa kaže:

Ritam ti je D D G :)

08-11-2010 02:44

početnik traži pomoć kaže:

ja sam početnik koji nez kak ide akord Hm nigdje da nađem taj akord može li mi netko pomoći molim vas :( :( :(

14-11-2010 21:40

XSARA kaže:

@početnik
Hm(europski način) ti je isto što i Bm(američki način označavanja)
Znači,traži Bm.

14-11-2010 23:34

početnik traži pomoć kaže:

ok hvala puno...:) :) :)

14-11-2010 23:35

Toma0 kaže:

Tko je autor ove pjesme?

02-02-2012 11:34