Ramones

Do You Remember Rock N Roll Radio

by: Armstrong

Pronađi akord!

Ne znaš kako odsvirati neki od akorda pjesmi Do You Remember Rock N Roll Radio? Upiši akord u tražilicu i saznaj!

Traženi akord će se prikazati ovdje

Od istog izvođača

Pregledano 782 puta
Pregledano 723 puta
Pregledano 895 puta
Pregledano 856 puta
Pregledano 1945 puta
Trebaš ritam za ovu pjesmu? Pronađi ga ovdje
Akordi/Tabovi:
Tuning: Standard

Opens with drums

Intro Part 1
e|--------------------------------------------------------------------------|
B|--------------------------------------------------------------------------|
G|5---5---------------------------------------------------------------------|
D|5-5-5-5-5555--------------------------------------------------------------|
A|3-5-3-5-5555--------------------------------------------------------------|
E|--3---3-3333--------------------------------------------------------------|

Intro Part 2
e|-------|-----------------------|------------------------------------------|
B|-------|-----------------------|------------------------------------------|
G|5---5--|-----------------------|------------------------------------------|
D|5-5-5-5|5-5-55-5-5555-3-4------|5-5-55-5-5555-----------------------------|
A|3-5-3-5|5-5-55-5-5555-3-4--X5--|5-5-55-5-5555-----------------------------|
E|--3---3|3-3-33-3-3333-1-2------|3-3-33-3-3333-----------------------------|
Rock and Rock and Roll Radio
Rock and Rock and Roll Radio
Let's Go Yeah!

Bass Bridge with Guitar
e|--------------------------------------------------------------------------|
B|--------------------------------------------------------------------------|
G|--------------------------------------------------------------------------|
D|---------22----22-55-77----44-77-99-55------------------------------------|
A|---22-55----33----------55-------------77-55------X2----------------------|
E|33-------------------------------------------77---------------------------|
Oh Yeah!
Guitar Bridge with Bass
e|--------------------------------------------------------------------------|
B|--------------------------------------------------------------------------|
G|------------555555555555777777777777--------------------------------------|
D|55555555555555555555555577777777777755555555555---------------------------|
A|55555555555533333333333355555555555555555555555----X2---------------------|
E|333333333333------------------------33333333333---------------------------|

Verses
e|----------------|---------------------------------------------------------|
B|----------------|---------------------------------------------------------|
G|Palm Mute55-7-77|---------------------------------------------------------|
D|5-55-555-55-7-77|55555555-------------------------------------------------|
A|5-55-555-33-5-55|55555555-------------------------------------------------|
E|3-33-333--------|33333333-------------------------------------------------|

Verse 1
G               C      D
Do you remember Hullabaloo,
G                    C           D
Upbeat, Shinding and Ed Sullivan too?
G               C           D
Do you remember rock'n'roll radio?
G               C           D      G
Do you remember rock'n'roll radio?

Bridge Guitar & Bass

Verse 2
G               C          D
Do you remember Murray the K,
G               C    D
Alan Freed, and high energy?
G                 C          D
It's the end, the end of the 70's
G                 C          D       G
It's the end, the end of the century

Chorus Part 1
e|--------------------------------------------------------------------------|
B|--------------------------------------------------------------------------|
G|-------777777--------999999-555555-777777---------------------------------|
D|777777-777777-555555-999999-555555-777777-555555--------------------------|
A|777777-555555-555555-777777-333333-555555-555555--------------------------|
E|555555--------333333----------------------333333--------------------------|
A               D
Do you remember lying in bed
G                          E
With the covers pulled up over your head
C                D          G
Radio playing so no one can see

Chorus Part 2
e|--------------------------------------------------------------------------|
B|--------------------------------------------------------------------------|
G|555555-777777--------999999-555555555-777777777---------------------------|
D|555555-777777-555555-999999-555555555-777777777---------------------------|
A|333333-555555-555555-777777-333333333-555555555---------------------------|
E|--------------333333------------------------------------------------------|
C                  D
We need change, we need it fast
G                  E
Before rock's just part of the past
C                                       D
'Cause lately it all sounds the same to me

Intro

Bridge Guitar & Bass

Verse 3
G                 C     D
Will you remember Jerry Lee,
G                       C  D
John Lennon, T. Rex and Ol Moulty?
G                 C          D
It's the end, the end of the 70's
G                 C          D       G
It's the end, the end of the century

Chorus

End Part 1
e|--------------------------------------------------------------------------|
B|--------------------------------------------------------------------------|
G|5---5---------------------------------------------------------------------|
D|5-5-5-5-5555--------------------------------------------------------------|
A|3-5-3-5-5555--------------------------------------------------------------|
E|--3---3-3333--------------------------------------------------------------|

End Part 2
e|-------|-----------------------|------------------------------------------|
B|-------|-----------------------|------------------------------------------|
G|5---5--|-----------------------|------------------------------------------|
D|5-5-5-5|5-5-55-5-5555-3-4------|55----------------------------------------|
A|3-5-3-5|5-5-55-5-5555-3-4--X5--|55----------------------------------------|
E|--3---3|3-3-33-3-3333-1-2------|33----------------------------------------|
Rock and Rock and Roll Radio
Rock and Rock and Roll Radio
Komentari
Još nema komentara