Ramones

Chain Saw

by: Armstrong

Pronađi akord!

Ne znaš kako odsvirati neki od akorda pjesmi Chain Saw? Upiši akord u tražilicu i saznaj!

Traženi akord će se prikazati ovdje

Od istog izvođača

Pregledano 772 puta
Pregledano 923 puta
Pregledano 907 puta
Pregledano 2359 puta
Pregledano 1992 puta
Trebaš ritam za ovu pjesmu? Pronađi ga ovdje
Akordi/Tabovi:
sec1 guitar>
e|-----------------------------------------------------------------------|
B|-----------------------------------------------------------------------|
G|-----------------------------------------------------9-9-9-9-9-9-9-9---|
D|--7-7-7-7-7-7-7-7--4-4-4-4-4-4-4-4--9-9-9-9-9-9-9-9--9-9-9-9-9-9-9-9---|
A|--7-7-7-7-7-7-7-7--4-4-4-4-4-4-4-4--9-9-9-9-9-9-9-9--7-7-7-7-7-7-7-7---|
E|--5-5-5-5-5-5-5-5--2-2-2-2-2-2-2-2--7-7-7-7-7-7-7-7--------------------|

sec1 bass>
G|-----------------------------------------------------------------------|
D|-----------------------------------------------------------------------|
A|-----------------------------------------------------------------------|
E|--5-5-5-5-5-5-5-5--2-2-2-2-2-2-2-2--7-7-7-7-7-7-7-7--0-0-0-0-0-0-0-0---|


----------------------------------------------------------------------------
2>

sec2 guitar>
e|-------------------------------------|
B|-------------------------------------|
G|-------------------------------------|
D|--7-7-7-7-7-7-7-7--4-4-4-4-4-4-4-4---|
A|--7-7-7-7-7-7-7-7--4-4-4-4-4-4-4-4---|
E|--5-5-5-5-5-5-5-5--2-2-2-2-2-2-2-2---|

sec2 bass>
G|-------------------------------------|
D|-------------------------------------|
A|-------------------------------------|
E|--5-5-5-5-5-5-5-5--2-2-2-2-2-2-2-2---|


----------------------------------------------------------------------------
3>

sec3 guitar>
e|-------------------------------------|
B|-------------------------------------|
G|-------------------9-9-9-9-9-9-9-9---|
D|--9-9-9-9-9-9-9-9--9-9-9-9-9-9-9-9---|
A|--9-9-9-9-9-9-9-9--7-7-7-7-7-7-7-7---|
E|--7-7-7-7-7-7-7-7--------------------|

sec3 bass>
G|-------------------------------------|
D|-------------------------------------|
A|-------------------------------------|
E|--7-7-7-7-7-7-7-7--0-0-0-0-0-0-0-0---|


----------------------------------------------------------------------------
4>

sec4> guitar>
e|-------------------------------------|
B|-------------------------------------|
G|-------------------9-9-9-9-9-9-9-9---|
D|--4-4-4-4-4-4-4-4--9-9-9-9-9-9-9-9---|
A|--4-4-4-4-4-4-4-4--7-7-7-7-7-7-7-7---|
E|--2-2-2-2-2-2-2-2--------------------|

sec4 bass>
G|-------------------------------------|
D|-------------------------------------|
A|-------------------------------------|
E|--2-2-2-2-2-2-2-2--0-0-0-0-0-0-0-0---|


----------------------------------------------------------------------------
5>

sec5 guitar>
e|-------------------------------------|
B|-------------------------------------|
G|--9-9-9-9-9-9-9-9--9-9-9-9-9-9-9-9---|
D|--9-9-9-9-9-9-9-9--9-9-9-9-9-9-9-9---|
A|--7-7-7-7-7-7-7-7--7-7-7-7-7-7-7-7---|
E|-------------------------------------|


sec5 bass>
G|-------------------------------------|
D|-------------------------------------|
A|-------------------------------------|
E|--0-0-0-0-0-0-0-0--0-0-0-0-0-0-0-0---|


----------------------------------------------------------------------------
6>

sec6 guitar>
e|-------------------------------------|
B|-------------------------------------|
G|-------------------------------------|
D|--7-7-7-7-7-7-7-7--7-7-7-7-7-7-7-7---|
A|--7-7-7-7-7-7-7-7--7-7-7-7-7-7-7-7---|
E|--5-5-5-5-5-5-5-5--5-5-5-5-5-5-5-5---|


sec6 bass>
G|-------------------------------------|
D|-------------------------------------|
A|-------------------------------------|
E|--5-5-5-5-5-5-5-5--5-5-5-5-5-5-5-5---|


----------------------------------------------------------------------------
7>

sec7> guitar>
e|-------------------------------------|
B|-------------------------------------|
G|-------------------------------------|
D|--4-4-4-4-4-4-4-4--4-4-4-4-4-4-4-4---|
A|--4-4-4-4-4-4-4-4--4-4-4-4-4-4-4-4---|
E|--2-2-2-2-2-2-2-2--2-2-2-2-2-2-2-2---|


sec7 bass>
G|-------------------------------------|
D|-------------------------------------|
A|-------------------------------------|
E|--2-2-2-2-2-2-2-2--2-2-2-2-2-2-2-2---|


----------------------------------------------------------------------------


ORDER>

sec1> 2X
sec2> 2X
sec3> 2X
sec2> 2X
sec3> 2X
sec4> 1X

sec2> 2X
sec3> 2X
sec2> 2X
sec3> 2X
sec4> 1X
sec5> 1X
sec6> 1X
sec5> 1X
sec7> 1X

sec2> 2X
sec3> 2X
sec2> 2X
sec3> 2X
sec4> 1X
sec2> 6X <- begin to fade out starting 4th X.
Komentari
Još nema komentara