Ramones

Beat On The Brat

by: Armstrong

Pronađi akord!

Ne znaš kako odsvirati neki od akorda pjesmi Beat On The Brat? Upiši akord u tražilicu i saznaj!

Traženi akord će se prikazati ovdje

Od istog izvođača

Pregledano 1545 puta
Pregledano 999 puta
Pregledano 843 puta
Pregledano 1912 puta
Pregledano 4719 puta
Trebaš ritam za ovu pjesmu? Pronađi ga ovdje
Akordi/Tabovi:
Standard tuning

intro
e-------------------------------------------------|---------------|
b-------------------------------------------------|---------------|
g---------------9-------------9------9------9-----|---------------|
d--9-9-9-9-9-9--9--9-9-9-9-9--9----9-9-9--9-9-9---|---------------|
a--9-9-9-9-9-9--7--9-9-9-9-9--7----9-9-7--9-9-7---|---------------|
e--7-7-7-7-7-7-----7-7-7-7-7-------7-7----7-7-----|---------------|

then this palm muted
e-----------------------------------------------------|--|
b-----------------------------------------------------|--|
g--------------------------------------------------------|X=? Listen to the song 2 no when
d--9-9-9-9-9-9-9-9-9-9-9-9-9-9-9-9-9-9-9-9-9-9--------|--|to stop.
a--9-9-9-9-9-9-9-9-9-9-9-9-9-9-9-9-9-9-9-9-9-9--------|--|
e--7-7-7-7-7-7-7-7-7-7-7-7-7-7-7-7-7-7-7-7-7-7--------|--|

NO PM.    Middle Part
e-----------------------------------------------------|
b-----------------------------------------------------|
g--9-9-9-9-9-9-9---11-11-11-11-11-11-11---------------|
d--9-9-9-9-9-9-9---11-11-11-11-11-11-11---------------|
a--7-7-7-7-7-7-7---9--9--9--9--9--9--9----------------|
e-----------------------------------------------------|

2nd Middle part
e-----------------------------------------|--------------------|
b-----------------------------------------|--------------------|
g-----------------------------------------|--------------------|
d--7-7-7-7-7-7-7---4-4-4-4-4-4-4----------|--------------------|
a--7-7-7-7-7-7-7---4-4-4-4-4-4-4----------|--------------------|
e--5-5-5-5-5-5-5---2-2-2-2-2-2-2----------|--------------------|

3ed Middle part
e-----------------------------------------------------------------------------|
b-----------------------------------------------------------------------------|
g---------------9-9-9-9-9-9----------------9-9-9-9-9-9------------------------|
d--9-9-9-9-9-9--9-9-9-9-9-9---9-9-9-9-9-9--9-9-9-9-9-9--9-9-9-9-9-9-9-9-9-9---|
a--9-9-9-9-9-9--7-7-7-7-7-7---9-9-9-9-9-9--7-7-7-7-7-7--9-9-9-9-9-9-9-9-9-9---|
e--7-7-7-7-7-7----------------7-7-7-7-7-7---------------7-7-7-7-7-7-7-7-7-7---|
                                                                       |___|
                                                                         |
                                                                 Play 2 more
                                                                  of this.
                                                         cuz i couldn't fit
                                                              the rest

Order:
Intro
Palm mute part
Middle part
PM=palm mute
MD=middle part
1\2 PM
MD part
1/2 PM
2nd MD ---|
2nd MD    |
3ed MD    |
2nd MD    |-----repeat|
3ed MD    |           |
2nd MD    |           |
2nd MD ---|           |
intro extended        |
PM                    |
MD                    |
PM                    |       
MD                    |
1/2pm                 |
MD                    |
1/2pm                 |
     <-here-----------|

end with intro.
Komentari
Još nema komentara