Ramones

Animal Boy

by: Armstrong

Pronađi akord!

Ne znaš kako odsvirati neki od akorda pjesmi Animal Boy? Upiši akord u tražilicu i saznaj!

Traženi akord će se prikazati ovdje

Od istog izvođača

Trebaš ritam za ovu pjesmu? Pronađi ga ovdje
Akordi/Tabovi:
INTRO (overdrive)

E|---------------|---------------|
B|---------------|---------------|
G|---------------|---------------|
D|---------------|---------------|  2x
A|999--55--77----|999--55--77----|
E|777--33--55----|777--33--55----|


VERSE (distortion)

E|---------------|---------------|
B|---------------|---------------|
G|---------------|---------------|
D|---------------|---------------|  4x
A|999--55--77----|999---55--77---|
E|777--33--55----|777---33--55---|


PRECHORUS

E|---------------|
B|---------------|
G|---------------|
D|9-----9--77----|  3x
A|7--9--7--55----|
E|---7-----------|


CHORUS 1(when screams: animal boy!!!)

E|---------------|---------------|---------------|---------------|
B|---------------|---------------|---------------|---------------|
G|---------------|---------------|---------------|---------------|
D|9-----9--77----|9-----9--77----|9-----9--77----|---------------|
A|7--9--7--55----|7--9--7--55----|7--9--7--55----|44-4-44-44-4-44|
E|---7-----------|---7-----------|---7-----------|22-2-22-22-2-22|


INTERLUDE

E|---------------|
B|---------------|
G|---------------|
D|---------------|   4x
A|9--9--5-7-4----|
E|7--7--3-5-2----|


CHORUS 2 (screaming: Animal Boy!!!) & END

E|---------------|---------------|---------------|---------------|
B|---------------|---------------|---------------|---------------|
G|---------------|---------------|---------------|---------------|
D|9-----9--77----|---------------|9-----9--77----|---------------|
A|7--9--7--55----|44-4-44-44-4-44|7--9--7--55----|44-4-44-44-4-44|
E|---7-----------|22-2-22-22-2-22|---7-----------|22-2-22-22-2-22|

E|---------------|---------------|---------------|---------------|
B|---------------|---------------|---------------|---------------|
G|---------------|---------------|---------------|---------------|
D|9-----9--77----|---------------|---------------|---------------|
A|7--9--7--55----|44-4-44-44-4-44|44-4-44-44-4-44|-9-------------|
E|---7-----------|22-2-22-22-2-22|22-2-22-22-2-22|-7-------------|




RIGHT ORDER:

INTRO
VERSE
PRECHORUS
VERSE
CHORUS 1
VERSE
CHORUS 1
INTERLUDE
INTRO (1x)
VERSE
CHORUS 2 & END
Komentari
Još nema komentara