Prljavo Kazalište

Moj bijeli labude

by: Guitar360

Pronađi akord!

Ne znaš kako odsvirati neki od akorda pjesmi Moj bijeli labude? Upiši akord u tražilicu i saznaj!

Traženi akord će se prikazati ovdje

Od istog izvođača

Pregledano 13964 puta
Pregledano 73135 puta
Pregledano 7434 puta
Pregledano 25411 puta
Pregledano 2447 puta
Trebaš ritam za ovu pjesmu? Pronađi ga ovdje
Akordi/Tabovi:
Prljavo Kazalište - Moj bijeli labude

Am             F                G           E
I bas me briga ko te noćas vozi kući, briga me
Am         F                        G
I ako si i sretna ko što kažeš,mada znam da lažeš
E            Am
Sve to ubija me.
F G   E                 Am
Oooh, grlim hladne jastuke
F G   E              Am
Oooh, moj bijeli labude.


I briga me što nisi mjesec, a ni sunce, briga me
Al' nećeš moći preko blatne kaljuže
Čista stić' do moje postelje.
Oooh, grlim hladne jastuke
Oooh, moj bijeli labude.


E              F
Moj bijeli labude
G                Am    G   D
Kad me jednom ne bude
                 F   G
Sve će vode, labude
             E
Da se razbistre.
Komentari

Zdravko Bg kaže:

Vrh!!!!!!!!!!!!

10-01-2009 19:12

mr_lazy kaže:

dno!!!"!!!!!11111!!!

01-03-2009 17:00

mr_lazy kaže:

dobro je kad se growla!!!!

01-03-2009 17:04

yeti kaže:

vrh vrhovaaaa:headbang

07-03-2009 17:30

amila_loda kaže:

ritam ?

30-06-2009 00:00

amila_loda kaže:

u ovoj pjesmi dolazi do pojave razlaganja akorda..ako ne grijesim.. jel moze neko da mi objasni kako se to svira ?

30-06-2009 00:10

tordajav kaže:

Dve korekcije:
1. U refrenu, gde u ovim akordima piše D, čuje se bas F#, pa je najbolje to i svirati, D/F# (2x023x)
2. Takođe u refrenu, poslednje G ima veze sa G ali više sa basem B i to je neki nečist akord gde se čuje bas B, mislim da je Bhalf-dim (x2323x).

03-08-2009 14:53

Žan Klod Van Dragan kaže:

decki pjesma je jebena osim sto se u refrenu neide D nego F# a ne D/F#...toliko od mene

12-08-2009 13:08

bojke kaže:

u refrenu ide D ali nakon toga umjesto zadnjeg G ide Dm i to je jedina istina.
Šta je sa sluhom, kakav mrtvi F#

29-10-2009 18:13

Metallica191 kaže:

Evo uvoda:
e|-------7-----5--------3-----1--------5-----3--------
H|-----0---0----------0---0----------0---0------------
G|---5-------5------2-------2------4-------4----------
D|----------------3--------------5------------------------
A|-0------------------------------------------------------
E|----------------------------------------------------

e|-------7-----5--------3-----1--------5-----3--------
H|-----0---0----------0---0----------0---0------------
G|---5-------5------2-------2------4-------4--------------
D|----------------3--------------5------------------------
A|-0------------------------------------------------------
E|---------------------------------------------------0

A ovo ide nakon:
Am F G E
e|-------0-----0---------1-----1----------3-----3----------0-----0----
H|-----1---1-----1-----1---1-----1------3---3-----3------0---0-----0--
G|---2-------2-------2-------2--------4-------4--------1-------1------
D|--------------------------------------------------------------------
A|-0------------------------------------------------------------------
E|------------------1---------------3----------------0----------------
A evo i onog prvog sola:
e|-----------------------------------------------------------------------
H|-5----------------6------------5---3----------------5h6p5-3-5p3---3-5--
G|--------------2-------------------------------------------------5------
D|-----------------------------------------------------------------------
A|-----------------------------------------------------------------------
E|-----------------------------------------------------------------------

Uzivajte :D

18-02-2010 13:35

Sikimic kaže:

jel moze neko ritam da pojasni ili neka video lekcija? ;) hvala unapred

05-04-2010 14:57

addmir_ kaže:

jel moze neko da napise ritam pjesme??

24-05-2010 12:10

haris kaže:

Fino sebi pustiš pjesmu i akord po akord..

24-05-2010 17:28

addmir_ kaže:

pa harise ako vec znas reci koji je

06-06-2010 10:47

gitarist98 kaže:

ko može solo napisati

25-06-2010 13:35

freddy kaže:

Ja sam to napisao davno u verziji 2 harmoniju koja je ok

30-10-2010 15:36

freddy kaže:

malo pogledaj sta je to obrtaj akorda D/F#

30-10-2010 15:39

LUKA-ZMAJ kaže:

moze li mi netko objasniti ritam intra tj. koje zice moram zvirati?! akorde znam! HVALA UNAPRIJED

07-11-2011 23:25

Fuse kaže:

@ Luka-Zmaj

Ja sviram na svakom akordu A-D-G-B zice, to je ovaj intro tj. prva strofa. Mozes se i vratiti jednu zicu unazad pa svirati A-D-G-B-G, kako tebi godi. Kada upadne na refren, najobicniji ritam D-DDG.

08-11-2011 00:30

hekler1 kaže:

@ Luka-Zmaj

U intru am moraš stisnuti na 5., evo ja sam ti dao smjernicu a ti malo poradi na sluhu.

Primi A mol na 5. pragu tako da položiš kažiprst preko1.,2.,i 3. žice, bas ton ti je 5. prazna žica,.....ostalo odradi sam ( znaći u tom položaju trebaš na 1.žici odsvirati neke tonove.

08-11-2011 17:15

hekler1 kaže:

@Luka-Zmaj, da još nadopunim, nakon gore rečenog Amola, spustiš se na F -Dur, (uhvati ga dolje-znaći samo 1.,2.,3.i 4.žica, tu također malim prstom dodaješ tonove (1.Žica), zatim G dur na isti način.

Mislim da sam previše rekao, moraš nešto sam---

08-11-2011 17:19

LUKA-ZMAJ kaže:

hvala vam

09-11-2011 14:46

Miroslav1391 kaže:

tordajav je sve rekao.

26-12-2011 23:36

LoLa kaže:

Akordi/Tabovi:
Nije sve reka....

D               F
Sve će vode labude
Hdim         E4-3
da se razbistre

27-12-2011 09:17

\m/aster kaže:

Sve ok, samo bi ja stavio ovaj dio ovako:

F
Sve će vode, labude
H7 E
Da se razbistre.

09-04-2018 21:23

truli45 kaže:

Ti bi Master tako stavio i ne bi bilo dobro.
Dobro je onako kako je onaj neznalica LoLa postavio.

10-04-2018 11:35