Parni Valjak

Sjaj u ocima

by: Armstrong

Pronađi akord!

Ne znaš kako odsvirati neki od akorda pjesmi Sjaj u ocima? Upiši akord u tražilicu i saznaj!

Traženi akord će se prikazati ovdje

Od istog izvođača

Pregledano 12299 puta
Pregledano 4666 puta
Pregledano 2682 puta
Pregledano 7517 puta
Pregledano 8421 puta
Trebaš ritam za ovu pjesmu? Pronađi ga ovdje
Akordi/Tabovi:
-Intro riff-
E|--------5-5----------------------------------------------
B|------5----8-6-5-----------5-----6-5---------------------
G|----5------------7-------5-----------7-5-4---------------
D|--7-------------------7--------7------------7-5----------
A|---------------------------------------------------------
E|---------------------------------------------------------

Am        F          Am        F
Gotovo je dugo ljeto jednom zauvijek
Pucanj iz pistolja kaze trka pocinje
Ispred mene nista, iza ljuta gomila
Hajde kazi duso gdje se sreca sakrila

Pratim svoje tragove, oni rade krugove
        Am  F       G
I na kraju  vode do tebe

Refren:
    C          F           C
Jer ti, ti jos sanjas isti san
To je san u bojama
       F         G
Ti jos imas isti sjaj
     Am - intro riff
U ocima


U ovom gradu sansi, bez sanse kruzimo
Sve je manje smijeha, sve se manje druzimo
I negdje netko drugi dijeli dobre uloge
Kao da se opet vraca: "Druze, snadji se"

Pratim svoje tragove, oni rade krugove
I na kraju  vode do tebe

-Refren-

-Solo-

-Refren- (fade out)
Komentari

tionio kaže:

MRAKKKK!!!!....

25-04-2009 17:02

žirko kaže:

Svugdje gdje piše C ide ovako (D-dolje, G- gore ...ritam trzanja) , u suštini se svira Cdur akord s uletom Csus4 u drugom dijelu takta

D D G D G D
------3----3----3----3----3---3----3
------5----5----5----6----5---5----5
------5----5----5----5----5---5----5
------5----5----5----5----5---5----5
------3----3----3----3----3---3---3
---------------------------------------

17-07-2015 18:01