Parni Valjak

Kao ti

by: Armstrong

Pronađi akord!

Ne znaš kako odsvirati neki od akorda pjesmi Kao ti? Upiši akord u tražilicu i saznaj!

Traženi akord će se prikazati ovdje

Od istog izvođača

Pregledano 45350 puta
Pregledano 7722 puta
Pregledano 25957 puta
Pregledano 7732 puta
Pregledano 945 puta
Trebaš ritam za ovu pjesmu? Pronađi ga ovdje
Akordi/Tabovi:
Intro:
[NC.]        A               C#m/G#             Hm/F#               E
e------------|------------------------------|-----------------------------------|
H---------.--|------------------------------|-------.-------------------------.-|
G---.--.--11-|-9/11--\9~~~~---9/11--\9~~~~--|-------9----9.--------------.--.-11|
D-9/11-11----|------------------------------|-9b11~~-9b10-9--7-9p7-----9/11-11--|
A------------|------------------------------|----------------------7------------|
E------------|------------------------------|-----------------------------------|
  A               C#m/G#             Hm               E               A
e|-------------------------------|--------------------------------|--------
H|-------------.-----------------|9/10~-10/7-7/3-0---------.---.--|--------
G|-9/11--\9~~~-9--9/11--\9~~~~---|-----------------1~~~~-1-2-2/4--|2/4\2~~~
D|-------------------------------|--------------------------------|--------
A|-------------------------------|--------------------------------|--------
E|-------------------------------|--------------------------------|--------

A           C#m/G#         Hm          E
Ti mi cinis krasne stvari, ti me cinis sretnim
I kada mi lose krene - ti si tu
Hm  E              A    /a  a g# f# e/
       Uvijek kraj mene

Otkada su igre grube, lijepo je znati
Da covjek ima nekog, kao ti
(Uuuuu) Na svojoj strani

Refren:
NC. Hm        E
Kao ti (tuari-ua)
    Hm        E
Kao ti (tuari-ua)
    A    C#m   D   E
Kao ti


Ti znas da ja nisam od velikih rijeci
Ono sto osjecam tesko je reci
Ipak, zelim da znas: volim te

-Refren:
Kao ti (tuari-ua)
Kao ti (tuari-ua)
    A   A7
Kao ti (aaaaaaaa)

   D        Dm     A (blues)      A7
Ja nisam od jucer, imam dosta iza sebe
    D       Dm    E
Al' nijedna prije znacila mi nije -

-Refren-

-Saks solo-

Ja nisam od jucer ....

-Refren-
                A6
...Ni`ko kao ti


--------------------
Pjesma je u 6/8 ritmu, prebire se palm-mute sa trzalicom, po jednu do dvije zice.
C#m/G# - 446654
blues  - ovdje dobro ide neki blues riff, npr. A5 - A6, cisto da se promijeni ugodjaj.
   .    - staccato (znaci "stani")
Komentari

Yamaha.C-70 kaže:

ne valja

29-05-2009 21:51

the_hogar kaže:

kad kazes da ne valja napisi sta ne valja ili idi bavi se necim drugo. covek je ekstra odradio ovu pesmu ja bih mozda samo malo drugacije uvodni solo:

-------------------------------------------------------------
-------------------------------------------------------------
---------11-9/11-9------9/11-9------------9------------------
-9/11-11-----------------------------9b-----9-9-7-9----------
----------------------------------------------------7--------
-------------------------------------------------------------



-------------------------------------------------------------
-------------------------------------------------------------
---------11-9/11-9------11-9/11-9------14b----14/11----------
-9/11-11-------------------------------------------12-9------
--------------------------------------------------------11---
-------------------------------------------------------------


-------------------------------------------------------------
-------------------------------------------------------------
-------------------------------------------------------------
----7-9-7/9-7------------------------------------------------
-11----------------------------------------------------------
-------------------------------------------------------------

10-05-2010 03:29

the_hogar kaže:

jebiga ispomerale se linije ne znam dal moze da se obrise ova predhodna poruka

10-05-2010 03:35

Zdravkochris kaže:

Pesma je osradjena jedanput,bravo!!

17-02-2011 17:24

mmsi kaže:

ja bih htio sam mrvicu ti promijeniti, a to je kada se ide iz C#m/G# na H#m/F# dodao bi malo bluesa i odsvirao to kromatski, tj. dodao između Cm/G

P.S. pošto trenutno nemam ovdje gitaru pa ne znam da li bi dobro zvučalo Cm/G, jer ja inače sviram A, C#m, Hm, E pa onda između C#m i Hm dodam Cm, nemojte me slušati ako ne zvuči dobro :)

06-01-2012 14:40