Prljavo Kazalište

Bit ce bolje

by: Armstrong

Pronađi akord!

Ne znaš kako odsvirati neki od akorda pjesmi Bit ce bolje? Upiši akord u tražilicu i saznaj!

Traženi akord će se prikazati ovdje

Od istog izvođača

Pregledano 9605 puta
Pregledano 75749 puta
Pregledano 13479 puta
Pregledano 1663 puta
Pregledano 7647 puta
Trebaš ritam za ovu pjesmu? Pronađi ga ovdje
Akordi/Tabovi:
intro:
E------------------------------------------------
A------------------------------------------------
D------------------------------------------------
G------------------------------------------------
B------------------------------------------------
E-0-0-0-0-0-0-0-0-0-0-0-0-0-0-0-0----------------

  E    D          E     D
E------------------------------------------------
B------------------------------------------------
G------------------------------------------------
D----5----------------5--------------------------
A-5h7-7-5-5-5-5-7--5h7-7-5-5h7p5-----------------
E------------7------------------7-5-3-5-0--------

E     D          E     D
E------------------------------------------------
B------------------------------------------------
G------------------------------------------------
D----5----------------5--------------------------
A-5h7-7-5-5-5-5-7--5h7-7-5-5-5-5-7---------------
E------------7----------------7------------------

Glavno razlaganje:
  E          A    E          A
E------------------------------------
B-------6-----2-2-------6-----2-2----
G-----4---4-4-2-2-----4---4-4-2-2----
D-4h6-------------4h6----------------
A------------------------------------
E------------------------------------

E             A
Turu tu tu tu tu, bit ce bolje
E             A
Turu tu tu tu tu, bit ce bolje

E             A
Sreo sam je jednog dana
E        A
Na ulici kraj ducana
E            A
Sanjala je o demonstracijama
E             A
Tjesila me da bit ce bolje

E------------------------------------------------
B------------------------------------------------
G------------------------------------------------
D----5----------------5--------------------------
A-5h7-7-5-5-5-5-7--5h7-7-5-5-5-5-7---------------
E------------7----------------7------------------

E      D      E      D
Za nas oboje, za nas oboje

Bila je pravi hippy
Vjerovala u djecu cvijeca
Mrzila je nasilje
Voljela parole

C5              D5                    C5 D5
Znala je samo parole, da bit ce bolje
Nije me uvjerila u to

E------------------------------------------------
A------------------------------------------------
D------------------------------------------------
G------------------------------------------------
B------------------------------------------------
E-0-0-0-0-0-0-0-0-0-0-0-0-0-0-0-0----------------

E     D          E     D
E------------------------------------------------
B------------------------------------------------
G------------------------------------------------
D----5----------------5--------------------------
A-5h7-7-5-5-5-5-7--5h7-7-5-5-5-5-7---------------
E------------7----------------7------------------

Turu tu tu tu tu, bit ce bolje
Turu tu tu tu tu, bit ce bolje
Nije me uvjerila u to
Nije me uvjerila u to
Nije me uvjerila u to
Nije me uvjerila u to

E----------------------------------------10--------------
B----------------------------8h10p8-8-10b--10-8-10p8-10--
G-----------7-7h9p7--7-7-9---------9-------------------9-
D----5-7-7s9-------7-------------------------------------
A-5h7----------------------------------------------------
E--------------------------------------------------------
Komentari
Još nema komentara