Him

Wings Of A Butterfly

by:

Pronađi akord!

Ne znaš kako odsvirati neki od akorda pjesmi Wings Of A Butterfly? Upiši akord u tražilicu i saznaj!

Traženi akord će se prikazati ovdje

Od istog izvođača

Pregledano 1642 puta
Pregledano 1705 puta
Pregledano 1550 puta
Pregledano 3435 puta
Pregledano 1446 puta
Trebaš ritam za ovu pjesmu? Pronađi ga ovdje
Akordi/Tabovi:
Tuning- half step down, Drop C#


Tab Key:
~ - let ring
h - hammer on
p - pull off
p.m. - palm mute


Intro Guitar 1
|------------------------|---------------|------------------------|----------------|
|--7---7---7---5h7p5--5--|---5---5---5---|--5---5---5---3h5p3--3--|--3---3---3--0--|
|------------------------|---------------|------------------------|----------------|X4
|----9---9---------------|-7---7---7---7-|----7---7---------------|----5---5-------|
|------------------------|---------------|------------------------|----------------|
|------------------------|---------------|------------------------|----------------|

Intro guitar 2 (guitar 2 comes in after guitar 1 plays that once)
|-------------------------|
|-------------------------|
|-------------------------|
|--5-5--7~-------5-5--7~--|
|--5-5--7~-------5-5--7~--|
|--5-5--7~-------5-5--7~--|

|------------------------------------------------------------|
|------------------------------------------------------------|
|------------------------------------------------------------|
|--9-9-9-9---0-0---7-7-7-7--7-7-7-7---7-6-5---5-5-5-5---7-7--|
|--9-9-9-9---0-0---7-7-7-7--7-7-7-7---7-6-5---5-5-5-5---7-7--|
|--9-9-9-9---0-0---7-7-7-7--7-7-7-7---7-6-5---5-5-5-5---7-7--|
p.m...........................................................

|-------------------------------------------------|
|-------------------------------------------------|
|-------------------------------------------------|
|--9-9-9-9---0-0---7-7-7-7--7-7-7-7---7-6-5---5~--|
|--9-9-9-9---0-0---7-7-7-7--7-7-7-7---7-6-5---5~--|
|--9-9-9-9---0-0---7-7-7-7--7-7-7-7---7-6-5---5~--|


Vesre 1
|----------------------------------|
|----------------------------------|
|----------------------------------|
|--3-5-5---5-3-3---3-5-3-5-7-5-3---|
|--3-5-5---5-3-3---3-5-3-5-7-5-3---|
|--3-5-5---5-3-3---3-5-3-5-7-5-3---|


|------------------------------------------|
|------------------------------------------|
|------------------------------------------|
|--3-5-5---3-3---5-3-3--3-5-3-5-7-5-3--2~--|
|--3-5-5---3-3---5-3-3--3-5-3-5-7-5-3--2~--|
|--3-5-5---3-3---5-3-3--3-5-3-5-7-5-3--2~--|

Chorus
|------------------------------------------------------------|
|------------------------------------------------------------|
|------------------------------------------------------------|
|--9-9-9-9---0-0---7-7-7-7--7-7-7-7---7-6-5---5-5-5-5---7-7--|
|--9-9-9-9---0-0---7-7-7-7--7-7-7-7---7-6-5---5-5-5-5---7-7--|
|--9-9-9-9---0-0---7-7-7-7--7-7-7-7---7-6-5---5-5-5-5---7-7--|

|-------------------------------------------------|
|-------------------------------------------------|
|-------------------------------------------------|
|--9-9-9-9---0-0---7-7-7-7--7-7-7-7---7-6-5---5~--|
|--9-9-9-9---0-0---7-7-7-7--7-7-7-7---7-6-5---5~--|
|--9-9-9-9---0-0---7-7-7-7--7-7-7-7---7-6-5---5~--|

|------------------------|---------------|------------------------|----------------|
|--7---7---7---5h7p5--5--|---5---5---5---|--5---5---5---3h5p3--3--|--3---3---3--0--|
|------------------------|---------------|------------------------|----------------|
|----9---9---------------|-7---7---7---7-|----7---7---------------|----5---5-------|
|------------------------|---------------|------------------------|----------------|
|------------------------|---------------|------------------------|----------------|

Verse 2
|----------------------------------|
|----------------------------------|
|----------------------------------|
|--3-5-5---5-3-3---3-5-3-5-7-5-3---|
|--3-5-5---5-3-3---3-5-3-5-7-5-3---|
|--3-5-5---5-3-3---3-5-3-5-7-5-3---|


|------------------------------------------|
|------------------------------------------|
|------------------------------------------|
|--3-5-5---3-3---5-3-3--3-5-3-5-7-5-3--2~--|
|--3-5-5---3-3---5-3-3--3-5-3-5-7-5-3--2~--|
|--3-5-5---3-3---5-3-3--3-5-3-5-7-5-3--2~--|

|------------------------|---------------|------------------------|----------------|
|--7---7---7---5h7p5--5--|---5---5---5---|--5---5---5---3h5p3--3--|--3---3---3--0--|
|------------------------|---------------|------------------------|----------------|
|----9---9---------------|-7---7---7---7-|----7---7---------------|----5---5-------|
|------------------------|---------------|------------------------|----------------|
|------------------------|---------------|------------------------|----------------|


Bridge or Solo
|--------------------------------------------------|
|--------------------------------------------------|
|--------------------------------------------------|
|--------------------------------------------------|
|--------------------------------------------------|
|--4~--7-6-4-2---4~--7-2~--4~--7-6-4-2---4~--7-2~--|

|---------------------------------|
|---------------------------------|
|---------------------------------|
|--4~--7-6-4-2-0-2---4~--7-2~-----|X2
|--4~--7-6-4-2-0-2---4~--7-2~-----|
|--4~--7-6-4-2-0-2---4~--7-2~-----|

|------------------------|---------------|------------------------|----------------|
|--7---7---7---5h7p5--5--|---5---5---5---|--5---5---5---3h5p3--3--|--3---3---3--0--|
|------------------------|---------------|------------------------|----------------|X4
|----9---9---------------|-7---7---7---7-|----7---7---------------|----5---5-------|
|------------------------|---------------|------------------------|----------------|
|------------------------|---------------|------------------------|----------------|

This tab is 99.9% Correct
Komentari

qbshade kaže:

Nesvidja mi se... Mislim da je verzija pogresna... Ja je sviram iz B-mola i zvuci mnogo bolje :P A i solo je tu :P

17-12-2011 14:28