Him

This Fortress Of Tears

by:

Pronađi akord!

Ne znaš kako odsvirati neki od akorda pjesmi This Fortress Of Tears? Upiši akord u tražilicu i saznaj!

Traženi akord će se prikazati ovdje

Od istog izvođača

Pregledano 1865 puta
Pregledano 1817 puta
Pregledano 1780 puta
Pregledano 5520 puta
Pregledano 1635 puta
Trebaš ritam za ovu pjesmu? Pronađi ga ovdje
Akordi/Tabovi:
Tuning: EADGBE

Intro: Play 2 Times
E-----------------------------------------------------------|
B-----2/3---2-2-2p0-----------------------------------------|
G-----2/4---2-2-2p0-----------------------------------------|
D----------------------4b5r4-2~-----------------------------|
A-----------------------------------------------------------|
E-----------------------------------------------------------|

Verse:
E-----------------------------------------------------------|
B-----------------------------------------------------------|
G-----------------------------------------------------------|
D-----7/9-9-9-9-9-9--77-7/5---------------------------------|
A-----7/9-9-9-9-9-9--77-5/5---------------------------------|
E-----5/7-7-7-7-7-7--55-5/3---2b3r2-0-----------------------|

E-----------------------------------------------------------|
B-----------------------------------------------------------|
G-----------------------------------------------------------|
D-----7/9-9-9-9-9-9--77-7/5---------------------------------|
A-----7/9-9-9-9-9-9--77-5/5---------------------------------|
E-----5/7-7-7-7-7-7--55-5/3---2b3r2-012--------------------|

Play 2 Times
E-----------------------------------------------------------|
B-----------------------------------------------------------|
G-----------------------------------------------------------|
D-----7/9-9-9-9-9-9--77-7/5---------------------------------|
A-----7/9-9-9-9-9-9--77-5/5---------------------------------|
E-----5/7-7-7-7-7-7--55-5/3---2b3r2-0-----------------------|

Pre Chorus:
E-----------------------------------------------------------|
B-----------------------------------------------------------|
G-----------------------------------------------------------|
D-----88-4--------------------------------------------------|
A-----88-4--------------------------------------------------|
E-----66-2/------------------------------------------------|

Chorus: Play 2 Times
E-----------------------------------------------------------|
B-----------------------------------------------------------|
G-----------------------------------7-7-7-7-7-7-7-7---------|
D---7-7-7-7-7-7-7-7-4-4-4-4-4-4-4-4-7-7-7-7-7-7-7-7-88-4----|
A---7-7-7-7-7-7-7-7-4-4-4-4-4-4-4-4-5-5-5-5-5-5-5-5-88-4----|
E---5-5-5-5-5-5-5-5-2-2-2-2-2-2-2-2-----------------66-2/--|

Verse: Play 2 Times
E-----------------------------------------------------------|
B-----------------------------------------------------------|
G-----------------------------------------------------------|
D-----7/9-9-9-9-9-9--77-7/5---------------------------------|
A-----7/9-9-9-9-9-9--77-5/5---------------------------------|
E-----5/7-7-7-7-7-7--55-5/3---2b3r2-0-----------------------|

Pre Chorus:
E-----------------------------------------------------------|
B-----------------------------------------------------------|
G-----------------------------------------------------------|
D------88-4-------------------------------------------------|
A------88-4-------------------------------------------------|
E------66-2/-----------------------------------------------|

Chorus: Play 2 Times
E-----------------------------------------------------------|
B-----------------------------------------------------------|
G-----------------------------------7-7-7-7-7-7-7-7---------|
D---7-7-7-7-7-7-7-7-4-4-4-4-4-4-4-4-7-7-7-7-7-7-7-7-88-4----|
A---7-7-7-7-7-7-7-7-4-4-4-4-4-4-4-4-5-5-5-5-5-5-5-5-88-4----|
E---5-5-5-5-5-5-5-5-2-2-2-2-2-2-2-2-----------------66-2/--|

Verse: Played with Solo
E-----------------------------------------------------------|
B-----------------------------------------------------------|
G-----------------------------------------------------------|
D-----7/9-9-9-9-9-9--77-7/5---------------------------------|
A-----7/9-9-9-9-9-9--77-5/5---------------------------------|
E-----5/7-7-7-7-7-7--55-5/3---2b3r2-0-----------------------|

E-----------------------------------------------------------|
B-----------------------------------------------------------|
G-----------------------------------------------------------|
D-----7/9-9-9-9-9-9--77-7/5---------------------------------|
A-----7/9-9-9-9-9-9--77-5/5---------------------------------|
E-----5/7-7-7-7-7-7--55-5/3---2b3r2-012--------------------|

Play 2 Times
E-----------------------------------------------------------|
B-----------------------------------------------------------|
G-----------------------------------------------------------|
D-----7/9-9-9-9-9-9--77-7/5---------------------------------|
A-----7/9-9-9-9-9-9--77-5/5---------------------------------|
E-----5/7-7-7-7-7-7--55-5/3---2b3r2-0-----------------------|

Pre Chorus:
E-----------------------------------------------------------|
B-----------------------------------------------------------|
G-----------------------------------------------------------|
D------88-4-------------------------------------------------|
A------88-4-------------------------------------------------|
E------66-2/-----------------------------------------------|

Chorus:
E-----------------------------------------------------------|
B-----------------------------------------------------------|
G-----------------------------------7-7-7-7-7-7-7-7---------|
D---7-7-7-7-7-7-7-7-4-4-4-4-4-4-4-4-7-7-7-7-7-7-7-7-88-4----|
A---7-7-7-7-7-7-7-7-4-4-4-4-4-4-4-4-5-5-5-5-5-5-5-5-88-4----|
E---5-5-5-5-5-5-5-5-2-2-2-2-2-2-2-2-----------------66-2/--|

Chorus:
E-----------------------------------------------------------|
B-----------------------------------------------------------|
G-----------------------------------7-7-7-7-7-7-7-7---------|
D---7-7-7-7-7-7-7-7-4-4-4-4-4-4-4-4-7-7-7-7-7-7-7-7---------|
A---7-7-7-7-7-7-7-7-4-4-4-4-4-4-4-4-5-5-5-5-5-5-5-5---------|
E---5-5-5-5-5-5-5-5-2-2-2-2-2-2-2-2-------------------------|

Verse:
E-----------------------------------------------------------|
B-----------------------------------------------------------|
G-----------------------------------------------------------|
D-----7/9-9-9-9-9-9--77-7/5---------------------------------|
A-----7/9-9-9-9-9-9--77-5/5---------------------------------|
E-----5/7-7-7-7-7-7--55-5/3---2b3r2-0-----------------------|

E-----------------------------------------------------------|
B-----------------------------------------------------------|
G-----------------------------------------------------------|
D-----7/9-9-9-9-9-9--77-7/5---------------------------------|
A-----7/9-9-9-9-9-9--77-5/5---------------------------------|
E-----5/7-7-7-7-7-7--55-5/3---2b3r2-012--------------------|

Play 2 Times
E-----------------------------------------------------------|
B-----------------------------------------------------------|
G-----------------------------------------------------------|
D-----7/9-9-9-9-9-9--77-7/5---------------------------------|
A-----7/9-9-9-9-9-9--77-5/5---------------------------------|
E-----5/7-7-7-7-7-7--55-5/3---2b3r2-0---Let Ring 2nd time---|
Komentari
Još nema komentara