Him

Solitary Man

by:

Pronađi akord!

Ne znaš kako odsvirati neki od akorda pjesmi Solitary Man? Upiši akord u tražilicu i saznaj!

Traženi akord će se prikazati ovdje

Od istog izvođača

Pregledano 1519 puta
Pregledano 2867 puta
Pregledano 3084 puta
Pregledano 6429 puta
Pregledano 2794 puta
Trebaš ritam za ovu pjesmu? Pronađi ga ovdje
Akordi/Tabovi:
Tuning: Drop D - DADGBe


Key
---

PM. - Palm mute
PH. - Pinch harmonic
<<  - Pick scrape
*   - Footnote
:   - Repeat (once, unless otherwise stated underneath)




1. Intro (Overdrive/distortion)

e|--------|---------------------------|-----------------------------|
B|--------|---------------------------|-----------------------------|
G|--------|---------------------------|-----------------------------|
D|---5-0--|--2--2--2-0-2-0--0--0--0-0-|-0h2-2--2-0-2-0--0--0--5-0---|
A|---5-0--|--2--2--2-0-2-0--0--0--0-0-|-0h2-2--2-0-2-0--0--0--5-0---|
D|---5-0--|--2--2--2-0-2-0--0--0--0-0-|-0h2-2--2-0-2-0--0--0--5-0---|



2. Verse (Overdrive/distortion)

e|-----------------------------------|---------------------------------|
B|-----------------------------------|---------------------------------|
G|-----------------------------------|---------------------------------|
D|-----------------------------------|---------------------------------|
A|-----------------------------------|---------------------------------|
D|---2-2-2-2-2-2-2-2-7-7-7-7-7-7-7-7-|-5-5-5-5-5-5-5-5-2-2-2-2-2-2-2-4-|
   PM. . . . . . . . . . . . . . . .   . . . . . . . . . . . . . . . .


e|---------------------------------|------------------------------------|
B|---------------------------------|-----------------------------10-----|
G|---------------------------------|--------------------------------7~--|
D|---------------------------------|------------------------------------|
A|---------------------------------|------------------------------------|
D|-5-5-5-5-5-5-5-5-7-7-7-7-7-7-2-4-|-5-5-5-5-5-5-5-5-7-7-7-7-7-7--------|
PM. . . . . . . . . . . . . . . .   . . . . . . . . . . . . . .PH. .


e|---------------------------------|---------------------------------|
B|---------------------------------|---------------------------------|
G|---------------------------------|---------------------------------|
D|---------------------------------|---------------------------------|
A|---------------------------------|---------------------------------|
D|-2-2-2-2-2-2-2-2-7-7-7-7-7-7-7-7-|-5-5-5-5-5-5-5-5-2-2-2-2-2-2-2-4-|
PM. . . . . . . . . . . . . . . .   . . . . . . . . . . . . . . . .


e|---------------------------------|-----------------------------------|-------------|
B|---------------------------------|-----------------------------------|-------------|
G|---------------------------------|-----------------------------------|-------------|
D|---------------------------------|-------------------------7-7-7-7---|---7---7--7--|
A|---------------------------------|---------------------7-7-7-7-7-7---|---7---7--7--|
D|-5-5-5-5-5-5-5-5-7-7-7-7-7-7-2-4-|-5-5-5-5-5-5-5-5-7-7-7-7-7-7-7-7---|---7---7--7--|
PM. . . . . . . . . . . . . . . .   . . . . . . . .



3. Chorus (Overdrive/distortion)

e|-------------------|------------------|------------------|------------------|-------------|
B|-------------------|------------------|------------------|------------------|-------------|
G|------------5---5--|------------------|-----------5---5--|------------------|-------------|
D|---5---5----5---5--|--5---5----0---0--|--0---0----5---5--|--5---5----0---0--|----0---0--0-|
A|---5---5----3---3--|--5---5----0---0--|--0---0----3---3--|--5---5----0---0--|----0---0--0-|
D|---5---5-----------|--5---5----0---0--|--0---0-----------|--5---5----0---0--|----0---0--0-|
                                           *   *
                                           
*On the track, a pick scrape is overdubbed during these two notes. A pick scrape downwards can be
played instead of these two notes (which is what I do).



4. Bridge part 1 (Overdrive/distortion)

e|---------------------------|----------------------------|
B|---------------------------|----------------------------|
G|---------------------------|----------------------------|
D|--2--2--2-0-2-0--0--0--0-0-|-0h2-2--2-0-2-0--0--0---0---|
A|--2--2--2-0-2-0--0--0--0-0-|-0h2-2--2-0-2-0--0--0---0---|
D|--2--2--2-0-2-0--0--0--0-0-|-0h2-2--2-0-2-0--0--0---0---|



5. Bridge part 2 (Overdrive/distortion)

e|---------------------------|-----------------------------|
B|---------------------------|-----------------------------|
G|---------------------------|-----------------------------|
D|--2--2--2-0-2-0--0--0--0-0-|-0h2-2--2-0-2-0--0--0--5-0---|
A|--2--2--2-0-2-0--0--0--0-0-|-0h2-2--2-0-2-0--0--0--5-0---|
D|--2--2--2-0-2-0--0--0--0-0-|-0h2-2--2-0-2-0--0--0--5-0---|



6. Bridge part 2 variation (Overdrive/distorion)

e|---------------------------|-----------------------------|
B|---------------------------|-----------------------------|
G|---------------------------|-----------------------------|
D|--2--2--2-0-2-0--0--0--0-0-|-0h2-2--2-0-2-0--0--0--0-0---|
A|--2--2--2-0-2-0--0--0--0-0-|-0h2-2--2-0-2-0--0--0--0-0---|
D|--2--2--2-0-2-0--0--0--0-0-|-0h2-2--2-0-2-0--0--0--0-0---|



7. Solo (Overdrive/distorion + wah)

e|-12--------|-----------|----------------|----------|
B|-15b17-----|-15--------|----------------|----------|
G|-----------|-12b15-----|-14b16-12-------|--5-------|
D|-----------|-----------|---------h14~~~-|-\7b8-----|
A|-----------|-----------|----------------|----------|
D|-----------|-----------|----------------|----------|



8. Clean part (Clean + wah/vibrato + strong reverb)

e|--------------|-----------------|
B|-5-----------:|-5---------------|
G|-4-----4-2----|-4---------------|
D|-2---2--------|-2---------------|
A|-2-----------:|-2----<<<<<<<<<<-|
D|-2------------|-2----<<<<<<<<<<-|
               x3
               
               
9. Outro (Overdrive/distortion)

e|--------------------------|----------------||
B|-------------------------:|---------5------||
G|--------------------------|---------4------||
D|--------------------------|---------2------||
A|-------------------------:|---7-7\--2------||
D|--2--2-5-9-7----4b5b4-----|-2-7-7\--2------||
                           x3         *

*Clean + wah/vibrato + strong reverb




Sequence
--------

1. Intro
2. Verse
3. Chorus
4. Bridge part 1
5. Bridge part 2
2. Verse
3. Chorus
4. Bridge part 1
6. Bridge part 2 variation
7. Solo
   Drums/effects only
8. Clean part
3. Chorus
4. Bridge part 1
7. Bridge part 2 variation
9. Outro
   End
Komentari
Još nema komentara