Him

Salt In Our Wounds

by:

Pronađi akord!

Ne znaš kako odsvirati neki od akorda pjesmi Salt In Our Wounds? Upiši akord u tražilicu i saznaj!

Traženi akord će se prikazati ovdje

Od istog izvođača

Pregledano 1723 puta
Pregledano 1806 puta
Pregledano 1670 puta
Pregledano 1663 puta
Pregledano 1139 puta
Trebaš ritam za ovu pjesmu? Pronađi ga ovdje
Akordi/Tabovi:
Intro
|-----------------------------------------------|
|-----------------------------------------------|
|-----------------------------------------------|
|-----------------------------------------------|
|-----------------------------------------------|
|--0-3-5-8-5-0-3-5-12-5-0-3-5-------------------|

Chorus
|--------------------------------------------------|
|--------------------------------------------------|
|-10--10-------------------------------------------| x4
|-10--10---5--7--3--10-----------------------------|
|--8---8---5--7--3--10-----------------------------|
|----------3--5--1---8-----------------------------|

After Chorus
|---------------------------------------------------|
|---------------------------------------------------|
|---------------------------------------------------|
|---------------------------------------------------|
|---------------------------------------------------|
|-5-0-3-5--12-5-------------------------------------|

Play Chorus again

Solo (this isnt all of it but its roughly the begining bit)
|------------------------------------------------------------------|
|------8------------------------------8--10---8---10---8-----------|
|-9-9----9-9-9-7-5-7-5-7-9-10-7-------------9--------9---9---------|
|------------------------------------------------------------------|
|------------------------------------------------------------------|
|------------------------------------------------------------------|

Play Chorus again

This is also being played on the last chorus
|------------------------------------------------------|
|--8--10--8--10--8--10--8--10 etc----------------------|
|------------------------------------------------------|
|------------------------------------------------------|
|------------------------------------------------------|
|------------------------------------------------------|
Komentari
Još nema komentara