Him

Right Here In My Arms

by:

Pronađi akord!

Ne znaš kako odsvirati neki od akorda pjesmi Right Here In My Arms? Upiši akord u tražilicu i saznaj!

Traženi akord će se prikazati ovdje

Od istog izvođača

Pregledano 1786 puta
Pregledano 1881 puta
Pregledano 2310 puta
Pregledano 2125 puta
Pregledano 1722 puta
Trebaš ritam za ovu pjesmu? Pronađi ga ovdje
Akordi/Tabovi:
HUGE THANKS TO XmetalfanX53 FOR THE CLEAN INTRO!!!

Intro
E------7--------7--------7-------7---
B--------8--------8--------8-------8-
G---9---------9--------9-------9-----
D-7---------7--------7-------7------- x2
A------------------------------------
E------------------------------------

E---------------------------------------
B---------------------------------------
G---------5------------5----------------
D------7--5--5--2~--7--5--5--2~--7~-----
A------7--3--5--2~--7--3--5--2~--7~-----
E--\x-5-----3--0~--5-----3--0~--5~-\x-

Verse
E---------
B---------
G----5----
D-7--5--5-
A-7--3--5-
E-5-----3-
---PM---

Pre-Chorus
E-------------------------------------------------------------------
B-------------------------------------------------------------------
G-------------------------------------------------------------------
D-7-7-7-7-7-7-7-7--3-3-3-3-3-3-3-3--5-5-5-5-5-5-5-5-5-5-5-5-5-5-5-5-
A-7-7-7-7-7-7-7-7--3-3-3-3-3-3-3-3--5-5-5-5-5-5-5-5-5-5-5-5-5-5-5-5-
E-5-5-5-5-5-5-5-5--1-1-1-1-1-1-1-1--3-3-3-3-3-3-3-3-3-3-3-3-3-3-3-3-

Chorus
E----------------------------------------------------------------------     E--------
B----------------------------------------------------------------------     B--------
G------------------5-5-5-5---------------------------------------------     G--------
D-7-7-7-7-7-7-7-7--5-5-5-5--5-5-5-5--2-2-2-2-2-2-2-2--3-3-3-3--5-5-5-5- x4  D-7~-----  End
A-7-7-7-7-7-7-7-7--3-3-3-3--5-5-5-5--2-2-2-2-2-2-2-2--3-3-3-3--5-5-5-5-     A-7~-----
E-5-5-5-5-5-5-5-5-----------3-3-3-3--0-0-0-0-0-0-0-0--1-1-1-1--3-3-3-3-     E-5~-\x-

Verse
E---------
B---------
G----5----
D-7--5--5-
A-7--3--5-
E-5-----3-
---PM---

Pre-Chorus
E-------------------------------------------------------------------
B-------------------------------------------------------------------
G-------------------------------------------------------------------
D-7-7-7-7-7-7-7-7--3-3-3-3-3-3-3-3--5-5-5-5-5-5-5-5-5-5-5-5-5-5-5-5-
A-7-7-7-7-7-7-7-7--3-3-3-3-3-3-3-3--5-5-5-5-5-5-5-5-5-5-5-5-5-5-5-5-
E-5-5-5-5-5-5-5-5--1-1-1-1-1-1-1-1--3-3-3-3-3-3-3-3-3-3-3-3-3-3-3-3-

Chorus
E----------------------------------------------------------------------   
B----------------------------------------------------------------------     
G------------------5-5-5-5---------------------------------------------     
D-7-7-7-7-7-7-7-7--5-5-5-5--5-5-5-5--2-2-2-2-2-2-2-2--3-3-3-3--5-5-5-5- x4 
A-7-7-7-7-7-7-7-7--3-3-3-3--5-5-5-5--2-2-2-2-2-2-2-2--3-3-3-3--5-5-5-5-     
E-5-5-5-5-5-5-5-5-----------3-3-3-3--0-0-0-0-0-0-0-0--1-1-1-1--3-3-3-3-     

Solo Background
E---------------------------------------------------------------------------
B---------------------------------------------------------------------------
G--------------------------8-8-8-8------------------------------------------
D-10-10-10-10-10-10-10-10--8-8-8-8--8-8-8-8--5-5-5-5-5-5-5-5--3-5-5-5-5-5-5- x4
A-10-10-10-10-10-10-10-10--6-6-6-6--8-8-8-8--5-5-5-5-5-5-5-5--3-5-5-5-5-5-5-
E--8--8--8--8--8--8--8--8-----------6-6-6-6--3-3-3-3-3-3-3-3—-1-3-3-3-3-3-3-

E----------------------------------------
B----------------------------------------
G----------------------------------------
D----------------------------------------
A----------------------------------------
E------------------------------------\x-

Chorus
E----------------------------------------------------------------------   
B----------------------------------------------------------------------     
G------------------5-5-5-5---------------------------------------------     
D-7-7-7-7-7-7-7-7--5-5-5-5--5-5-5-5--2-2-2-2-2-2-2-2--3-3-3-3--5-5-5-5- x4 
A-7-7-7-7-7-7-7-7--3-3-3-3--5-5-5-5--2-2-2-2-2-2-2-2--3-3-3-3--5-5-5-5-     
E-5-5-5-5-5-5-5-5-----------3-3-3-3--0-0-0-0-0-0-0-0--1-1-1-1--3-3-3-3-     
Komentari
Još nema komentara