Him

In Joy And Sorrow

by:

Pronađi akord!

Ne znaš kako odsvirati neki od akorda pjesmi In Joy And Sorrow? Upiši akord u tražilicu i saznaj!

Traženi akord će se prikazati ovdje

Od istog izvođača

Pregledano 2226 puta
Pregledano 2877 puta
Pregledano 1544 puta
Pregledano 2133 puta
Pregledano 1439 puta
Trebaš ritam za ovu pjesmu? Pronađi ga ovdje
Akordi/Tabovi:
Mxtabs [http://www.mxtabs.net]
#----------------------------------PLEASE NOTE--------------------------------#
#This file is the author's own work and represents their interpretation of the#
#song. You may only use this file for private study, scholarship, or research.#
#-----------------------------------------------------------------------------#
#-- File created with Instab - http://www.pconline.com/~smcarey/instab.html --#
#-----------------------------------------------------------------------------#

-----------------|---------0-------|-----------------|-----------------|------
---------3-------|-----------3-----|---------1-------|-0-------1-------|------
-----0-----0-----|-------------0---|-----2-----2-----|---2-------2-----|------
---2---2-----2---|-----0---------0-|---2---2-----2---|-----2-----------|---2--
-3-------------3-|---2---2---------|-0-------------0-|-------0-----0-2-|-3----
-----------------|-3---------------|-----------------|-----------------|------
                                                                             

-------------|---------0-------|-----------------|-----------------|----------
-----3-------|-----------3-----|---------1-------|-0-------1-------|----------
-0-----0-----|-------------0---|-----2-----2-----|---2-------2-----|-----0----
---2-----2---|-----0---------0-|---2---2-----2---|-----2-----------|---2---3--
-----------3-|---2---2---------|-0-------------0-|-------0-----0-2-|-3--------
-------------|-3---------------|-----------------|-----------------|----------
                                                                             

---------|---------0-------|---------1-------|-----------------|--------------
-3-------|-----------3-----|-----3-----3-----|---------1-------|---------3----
---0-----|-------------0---|---2---2-----2---|-----2-----2-----|-----0-----0--
-----2---|-----0---------0-|-0-------------0-|---2---2---------|---2---2------
-------3-|---2---2---------|-----------------|-0-----------0-2-|-3------------
---------|-3---------------|-----------------|-----------------|--------------
                                                                             

-----|---------0-------|-----------------|-----------------|------------------
-----|-----------3-----|-----------------|-----------------|------------------
-----|-------------0---|---------0-------|-1---------------|------------------
-2---|-----0---------0-|-----2-----2-----|-2---------------|------------------
---3-|---2---2---------|---2---2-----2---|-2---------------|------------------
-----|-3---------------|-0-------------0-|-0---------------|------------------
                                                                             

------------------------------------------------------------------------------
------------------------------------------------------------------------------
------------------------------------------------------------------------------
------------------------------------------------------------------------------
------------------------------------------------------------------------------
------------------------------------------------------------------------------
Chorus: am am C G F F C G G# am am C G F F C G                               

------------------------------------------------------------------------------
------------------------------------------------------------------------------
------------------------------------------------------------------------------
------------------------------------------------------------------------------
------------------------------------------------------------------------------
------------------------------------------------------------------------------
Komentari
Još nema komentara