Him

The Heartless

by:

Pronađi akord!

Ne znaš kako odsvirati neki od akorda pjesmi The Heartless? Upiši akord u tražilicu i saznaj!

Traženi akord će se prikazati ovdje

Od istog izvođača

Pregledano 1780 puta
Pregledano 2877 puta
Pregledano 1784 puta
Pregledano 2661 puta
Pregledano 1812 puta
Trebaš ritam za ovu pjesmu? Pronađi ga ovdje
Akordi/Tabovi:
     Intro/Chorus

        youuur pain aint love.....         E
E||------------------|------------------|--7--7--7--7----7--7--7--|
B||------------------|------------------|--9--9--9--9----9--9--9--|
G||------------------|------------------|--9--9--9--9----9--9--9--|
D||------------------|------------------|--9--9--9--9----9--9--9--|
A||------------------|------------------|--7--7--7--7----7--7--7--|
E||------------------|------------------|--0--0--0--0----0--0--0--|


    B          C           E                           B          C
----2--2--2----0--0--0--|--7--7--7--7----7--7--7--|----2--2--2----0--0--0--|
----4--4--4----1--1--1--|--9--9--9--9----9--9--9--|----4--4--4----1--1--1--|
----4--4--4----0--0--0--|--9--9--9--9----9--9--9--|----4--4--4----0--0--0--|
----4--4--4----2--2--2--|--9--9--9--9----9--9--9--|----4--4--4----2--2--2--|
----2--2--2----3--3--3--|--7--7--7--7----7--7--7--|----2--2--2----3--3--3--|
------------------------|--0--0--0--0----0--0--0--|------------------------|


  E                           B          C           G
--7--7--7--7----7--7--7--|----2--2--2----0--0--0--|--7----7--7--7----7----|
--9--9--9--9----9--9--9--|----4--4--4----1--1--1--|--0----0--0--0----0----|
--9--9--9--9----9--9--9--|----4--4--4----0--0--0--|--7----7--7--7----7----|
--9--9--9--9----9--9--9--|----4--4--4----2--2--2--|--5----5--5--5----5----|
--7--7--7--7----7--7--7--|----2--2--2----3--3--3--|-----------------------|
--0--0--0--0----0--0--0--|------------------------|-----------------------|


        D                 E                           B          C
--5--5--5----5----5----|--7--7--7--7----7--7--7--|----2--2--2----0--0--0--|
--7--7--7----7----7----|--9--9--9--9----9--9--9--|----4--4--4----1--1--1--|
--7--7--7----7----7----|--9--9--9--9----9--9--9--|----4--4--4----0--0--0--|
--7--7--7----7----7----|--9--9--9--9----9--9--9--|----4--4--4----2--2--2--|
--5--5--5----5----5----|--7--7--7--7----7--7--7--|----2--2--2----3--3--3--|
-----------------------|--0--0--0--0----0--0--0--|------------------------|


  E                           B          C           E
--7--7--7--7----7--7--7--|----2--2--2----0--0--0--|--7--7--7--7----7--7--7--|
--9--9--9--9----9--9--9--|----4--4--4----1--1--1--|--9--9--9--9----9--9--9--|
--9--9--9--9----9--9--9--|----4--4--4----0--0--0--|--9--9--9--9----9--9--9--|
--9--9--9--9----9--9--9--|----4--4--4----2--2--2--|--9--9--9--9----9--9--9--|
--7--7--7--7----7--7--7--|----2--2--2----3--3--3--|--7--7--7--7----7--7--7--|
--0--0--0--0----0--0--0--|------------------------|--0--0--0--0----0--0--0--|


    B          C           G                             D
----2--2--2----0--0--0--|--7----7--7--7----7----|--5--5--5----5----5----|
----4--4--4----1--1--1--|--0----0--0--0----0----|--7--7--7----7----7----|
----4--4--4----0--0--0--|--7----7--7--7----7----|--7--7--7----7----7----|
----4--4--4----2--2--2--|--5----5--5--5----5----|--7--7--7----7----7----|
----2--2--2----3--3--3--|-----------------------|--5--5--5----5----5----|
------------------------|-----------------------|-----------------------|




Verse

  E                               D     C              E
--7--7--7--7----7--7--7--|--5--5--5--5--0--0--0--0--|--7--7--7--7----7--7--7--|
--9--9--9--9----9--9--9--|--7--7--7--7--1--1--1--1--|--9--9--9--9----9--9--9--|
--9--9--9--9----9--9--9--|--7--7--7--7--0--0--0--0--|--9--9--9--9----9--9--9--|
--9--9--9--9----9--9--9--|--7--7--7--7--2--2--2--2--|--9--9--9--9----9--9--9--|
--7--7--7--7----7--7--7--|--5--5--5--5--3--3--3--3--|--7--7--7--7----7--7--7--|
-------------------------|--------------------------|-------------------------|


        D     C              E                               D     C
--5--5--5--5--0--0--0--0--|--7--7--7--7----7--7--7--|--5--5--5--5--0--0--0--0--|
--7--7--7--7--1--1--1--1--|--9--9--9--9----9--9--9--|--7--7--7--7--1--1--1--1--|
--7--7--7--7--0--0--0--0--|--9--9--9--9----9--9--9--|--7--7--7--7--0--0--0--0--|
--7--7--7--7--2--2--2--2--|--9--9--9--9----9--9--9--|--7--7--7--7--2--2--2--2--|
--5--5--5--5--3--3--3--3--|--7--7--7--7----7--7--7--|--5--5--5--5--3--3--3--3--|
--------------------------|-------------------------|--------------------------|


  E                               D     C              E
--7--7--7--7----7--7--7--|--5--5--5--5--0--0--0--0--|--7--7--7--7----7--7--7--|
--9--9--9--9----9--9--9--|--7--7--7--7--1--1--1--1--|--9--9--9--9----9--9--9--|
--9--9--9--9----9--9--9--|--7--7--7--7--0--0--0--0--|--9--9--9--9----9--9--9--|
--9--9--9--9----9--9--9--|--7--7--7--7--2--2--2--2--|--9--9--9--9----9--9--9--|
--7--7--7--7----7--7--7--|--5--5--5--5--3--3--3--3--|--7--7--7--7----7--7--7--|
-------------------------|--------------------------|-------------------------|


        D     C              E                               D     C
--5--5--5--5--0--0--0--0--|--7--7--7--7----7--7--7--|--5--5--5--5--0--0--0--0--|
--7--7--7--7--1--1--1--1--|--9--9--9--9----9--9--9--|--7--7--7--7--1--1--1--1--|
--7--7--7--7--0--0--0--0--|--9--9--9--9----9--9--9--|--7--7--7--7--0--0--0--0--|
--7--7--7--7--2--2--2--2--|--9--9--9--9----9--9--9--|--7--7--7--7--2--2--2--2--|
--5--5--5--5--3--3--3--3--|--7--7--7--7----7--7--7--|--5--5--5--5--3--3--3--3--|
--------------------------|-------------------------|--------------------------|


  E                               D     C              G
--7--7--7--7----7--7--7--|--5--5--5--5--0--0--0--0--|--3----3--3----3--3--3--|
--9--9--9--9----9--9--9--|--7--7--7--7--1--1--1--1--|--3----3--3----3--3--3--|
--9--9--9--9----9--9--9--|--7--7--7--7--0--0--0--0--|--0----0--0----0--0--0--|
--9--9--9--9----9--9--9--|--7--7--7--7--2--2--2--2--|--0----0--0----0--0--0--|
--7--7--7--7----7--7--7--|--5--5--5--5--3--3--3--3--|--2----2--2----2--2--2--|
-------------------------|--------------------------|--3----3--3----3--3--3--|



                        Chorus

  Am                     E                           B          C
--0----0----0----0----|--7--7--7--7----7--7--7--|----2--2--2----0--0--0--|
--2----2----2----2----|--9--9--9--9----9--9--9--|----4--4--4----1--1--1--|
--2----2----2----2----|--9--9--9--9----9--9--9--|----4--4--4----0--0--0--|
--2----2----2----2----|--9--9--9--9----9--9--9--|----4--4--4----2--2--2--|
--0----0----0----0----|--7--7--7--7----7--7--7--|----2--2--2----3--3--3--|
----------------------|--0--0--0--0----0--0--0--|------------------------|


  E                           B          C           E
--7--7--7--7----7--7--7--|----2--2--2----0--0--0--|--7--7--7--7----7--7--7--|
--9--9--9--9----9--9--9--|----4--4--4----1--1--1--|--9--9--9--9----9--9--9--|
--9--9--9--9----9--9--9--|----4--4--4----0--0--0--|--9--9--9--9----9--9--9--|
--9--9--9--9----9--9--9--|----4--4--4----2--2--2--|--9--9--9--9----9--9--9--|
--7--7--7--7----7--7--7--|----2--2--2----3--3--3--|--7--7--7--7----7--7--7--|
--0--0--0--0----0--0--0--|------------------------|--0--0--0--0----0--0--0--|


    B          C           G                             D
----2--2--2----0--0--0--|--7----7--7--7----7----|--5--5--5----5----5----|
----4--4--4----1--1--1--|--0----0--0--0----0----|--7--7--7----7----7----|
----4--4--4----0--0--0--|--7----7--7--7----7----|--7--7--7----7----7----|
----4--4--4----2--2--2--|--5----5--5--5----5----|--7--7--7----7----7----|
----2--2--2----3--3--3--|-----------------------|--5--5--5----5----5----|
------------------------|-----------------------|-----------------------|


Verse

  E                               D     C              E
--7--7--7--7----7--7--7--|--5--5--5--5--0--0--0--0--|--7--7--7--7----7--7--7--|
--9--9--9--9----9--9--9--|--7--7--7--7--1--1--1--1--|--9--9--9--9----9--9--9--|
--9--9--9--9----9--9--9--|--7--7--7--7--0--0--0--0--|--9--9--9--9----9--9--9--|
--9--9--9--9----9--9--9--|--7--7--7--7--2--2--2--2--|--9--9--9--9----9--9--9--|
--7--7--7--7----7--7--7--|--5--5--5--5--3--3--3--3--|--7--7--7--7----7--7--7--|
-------------------------|--------------------------|-------------------------|


        D     C              E                               D     C
--5--5--5--5--0--0--0--0--|--7--7--7--7----7--7--7--|--5--5--5--5--0--0--0--0--|
--7--7--7--7--1--1--1--1--|--9--9--9--9----9--9--9--|--7--7--7--7--1--1--1--1--|
--7--7--7--7--0--0--0--0--|--9--9--9--9----9--9--9--|--7--7--7--7--0--0--0--0--|
--7--7--7--7--2--2--2--2--|--9--9--9--9----9--9--9--|--7--7--7--7--2--2--2--2--|
--5--5--5--5--3--3--3--3--|--7--7--7--7----7--7--7--|--5--5--5--5--3--3--3--3--|
--------------------------|-------------------------|--------------------------|

                                                 Chorus

  G                        Am                     E
--3----3--3----3--3--3--|--0----0----0----0----|--7--7--7--7----7--7--7--|
--3----3--3----3--3--3--|--2----2----2----2----|--9--9--9--9----9--9--9--|
--0----0--0----0--0--0--|--2----2----2----2----|--9--9--9--9----9--9--9--|
--0----0--0----0--0--0--|--2----2----2----2----|--9--9--9--9----9--9--9--|
--2----2--2----2--2--2--|--0----0----0----0----|--7--7--7--7----7--7--7--|
--3----3--3----3--3--3--|----------------------|--0--0--0--0----0--0--0--|


    B          C           E                           B          C
----2--2--2----0--0--0--|--7--7--7--7----7--7--7--|----2--2--2----0--0--0--|
----4--4--4----1--1--1--|--9--9--9--9----9--9--9--|----4--4--4----1--1--1--|
----4--4--4----0--0--0--|--9--9--9--9----9--9--9--|----4--4--4----0--0--0--|
----4--4--4----2--2--2--|--9--9--9--9----9--9--9--|----4--4--4----2--2--2--|
----2--2--2----3--3--3--|--7--7--7--7----7--7--7--|----2--2--2----3--3--3--|
------------------------|--0--0--0--0----0--0--0--|------------------------|


  E                           B          C           G
--7--7--7--7----7--7--7--|----2--2--2----0--0--0--|--7----7--7--7----7----|
--9--9--9--9----9--9--9--|----4--4--4----1--1--1--|--0----0--0--0----0----|
--9--9--9--9----9--9--9--|----4--4--4----0--0--0--|--7----7--7--7----7----|
--9--9--9--9----9--9--9--|----4--4--4----2--2--2--|--5----5--5--5----5----|
--7--7--7--7----7--7--7--|----2--2--2----3--3--3--|-----------------------|
--0--0--0--0----0--0--0--|------------------------|-----------------------|


        D                 E                           B          C
--5--5--5----5----5----|--7--7--7--7----7--7--7--|----2--2--2----0--0--0--|
--7--7--7----7----7----|--9--9--9--9----9--9--9--|----4--4--4----1--1--1--|
--7--7--7----7----7----|--9--9--9--9----9--9--9--|----4--4--4----0--0--0--|
--7--7--7----7----7----|--9--9--9--9----9--9--9--|----4--4--4----2--2--2--|
--5--5--5----5----5----|--7--7--7--7----7--7--7--|----2--2--2----3--3--3--|
-----------------------|--0--0--0--0----0--0--0--|------------------------|


  E                           B          C           E
--7--7--7--7----7--7--7--|----2--2--2----0--0--0--|--7--7--7--7----7--7--7--|
--9--9--9--9----9--9--9--|----4--4--4----1--1--1--|--9--9--9--9----9--9--9--|
--9--9--9--9----9--9--9--|----4--4--4----0--0--0--|--9--9--9--9----9--9--9--|
--9--9--9--9----9--9--9--|----4--4--4----2--2--2--|--9--9--9--9----9--9--9--|
--7--7--7--7----7--7--7--|----2--2--2----3--3--3--|--7--7--7--7----7--7--7--|
--0--0--0--0----0--0--0--|------------------------|--0--0--0--0----0--0--0--|


    B          C           G                             D
----2--2--2----0--0--0--|--7----7--7--7----7----|--5--5--5----5----5----|
----4--4--4----1--1--1--|--0----0--0--0----0----|--7--7--7----7----7----|
----4--4--4----0--0--0--|--7----7--7--7----7----|--7--7--7----7----7----|
----4--4--4----2--2--2--|--5----5--5--5----5----|--7--7--7----7----7----|
----2--2--2----3--3--3--|-----------------------|--5--5--5----5----5----|
------------------------|-----------------------|-----------------------|




Inturlude1
------------------------|-------------------------|------------------------|
------------------------|-------------------------|------------------------|
------------------------|-------------6--6--8--9--|------------------------|
--6----6-6------6----6--|----6-6------4--4--6--7--|--6----6-6------6----6--|
--4----4-4-4~---4----4--|----4-4-4~---------------|--4----4-4-4~---4----4--|
--4----4-4-4~---4----4--|----4-4-4~---------------|--4----4-4-4~---4----4--|



-------------------------|------------------------|-------------------------|
-------------------------|------------------------|-------------------------|
-------------6--6--8--9--|------------------------|-------------6--6--8--9--|
----6-6------4--4--6--7--|--6----6-6------6----6--|----6-6------4--4--6--7--|
----4-4-4~---------------|--4----4-4-4~---4----4--|----4-4-4~---------------|
----4-4-4~---------------|--4----4-4-4~---4----4--|----4-4-4~---------------|

                                                    Interlude2
                                                     E
------------------------|-------------------------|--7--7--7--7----7--7--7--|
------------------------|-------------------------|--9--9--9--9----9--9--9--|
------------------------|-------------6--6--8--9--|--9--9--9--9----9--9--9--|
--6----6-6------6----6--|----6-6------4--4--6--7--|--9--9--9--9----9--9--9--|
--4----4-4-4~---4----4--|----4-4-4~---------------|--7--7--7--7----7--7--7--|
--4----4-4-4~---4----4--|----4-4-4~---------------|-------------------------|


        D     C              E                               D     C
--5--5--5--5--0--0--0--0--|--7--7--7--7----7--7--7--|--5--5--5--5--0--0--0--0--|
--7--7--7--7--1--1--1--1--|--9--9--9--9----9--9--9--|--7--7--7--7--1--1--1--1--|
--7--7--7--7--0--0--0--0--|--9--9--9--9----9--9--9--|--7--7--7--7--0--0--0--0--|
--7--7--7--7--2--2--2--2--|--9--9--9--9----9--9--9--|--7--7--7--7--2--2--2--2--|
--5--5--5--5--3--3--3--3--|--7--7--7--7----7--7--7--|--5--5--5--5--3--3--3--3--|
--------------------------|-------------------------|--------------------------|


  E                               D     C              G
--7--7--7--7----7--7--7--|--5--5--5--5--0--0--0--0--|--3----3--3----3--3--3--|
--9--9--9--9----9--9--9--|--7--7--7--7--1--1--1--1--|--3----3--3----3--3--3--|
--9--9--9--9----9--9--9--|--7--7--7--7--0--0--0--0--|--0----0--0----0--0--0--|
--9--9--9--9----9--9--9--|--7--7--7--7--2--2--2--2--|--0----0--0----0--0--0--|
--7--7--7--7----7--7--7--|--5--5--5--5--3--3--3--3--|--2----2--2----2--2--2--|
-------------------------|--------------------------|--3----3--3----3--3--3--|

                        Outro/Chorus

  Am                     E                           B          C
--0----0----0----0----|--7--7--7--7----7--7--7--|----2--2--2----0--0--0--|
--2----2----2----2----|--9--9--9--9----9--9--9--|----4--4--4----1--1--1--|
--2----2----2----2----|--9--9--9--9----9--9--9--|----4--4--4----0--0--0--|
--2----2----2----2----|--9--9--9--9----9--9--9--|----4--4--4----2--2--2--|
--0----0----0----0----|--7--7--7--7----7--7--7--|----2--2--2----3--3--3--|
----------------------|--0--0--0--0----0--0--0--|------------------------|


  E                           B          C           E
--7--7--7--7----7--7--7--|----2--2--2----0--0--0--|--7--7--7--7----7--7--7--|
--9--9--9--9----9--9--9--|----4--4--4----1--1--1--|--9--9--9--9----9--9--9--|
--9--9--9--9----9--9--9--|----4--4--4----0--0--0--|--9--9--9--9----9--9--9--|
--9--9--9--9----9--9--9--|----4--4--4----2--2--2--|--9--9--9--9----9--9--9--|
--7--7--7--7----7--7--7--|----2--2--2----3--3--3--|--7--7--7--7----7--7--7--|
--0--0--0--0----0--0--0--|------------------------|--0--0--0--0----0--0--0--|


    B          C           G                             D
----2--2--2----0--0--0--|--7----7--7--7----7----|--5--5--5----5----5----|
----4--4--4----1--1--1--|--0----0--0--0----0----|--7--7--7----7----7----|
----4--4--4----0--0--0--|--7----7--7--7----7----|--7--7--7----7----7----|
----4--4--4----2--2--2--|--5----5--5--5----5----|--7--7--7----7----7----|
----2--2--2----3--3--3--|-----------------------|--5--5--5----5----5----|
------------------------|-----------------------|-----------------------|


  E                           B          C           E
--7--7--7--7----7--7--7--|----2--2--2----0--0--0--|--7--7--7--7----7--7--7--|
--9--9--9--9----9--9--9--|----4--4--4----1--1--1--|--9--9--9--9----9--9--9--|
--9--9--9--9----9--9--9--|----4--4--4----0--0--0--|--9--9--9--9----9--9--9--|
--9--9--9--9----9--9--9--|----4--4--4----2--2--2--|--9--9--9--9----9--9--9--|
--7--7--7--7----7--7--7--|----2--2--2----3--3--3--|--7--7--7--7----7--7--7--|
--0--0--0--0----0--0--0--|------------------------|--0--0--0--0----0--0--0--|


    B          C           E                           B          C
----2--2--2----0--0--0--|--7--7--7--7----7--7--7--|----2--2--2----0--0--0--|
----4--4--4----1--1--1--|--9--9--9--9----9--9--9--|----4--4--4----1--1--1--|
----4--4--4----0--0--0--|--9--9--9--9----9--9--9--|----4--4--4----0--0--0--|
----4--4--4----2--2--2--|--9--9--9--9----9--9--9--|----4--4--4----2--2--2--|
----2--2--2----3--3--3--|--7--7--7--7----7--7--7--|----2--2--2----3--3--3--|
------------------------|--0--0--0--0----0--0--0--|------------------------|


  G                             D
--7----7--7--7----7----|--5--5--5----5----5----|------------------|
--0----0--0--0----0----|--7--7--7----7----7----|------------------|
--7----7--7--7----7----|--7--7--7----7----7----|------------------|
--5----5--5--5----5----|--7--7--7----7----7----|------------------|
-----------------------|--5--5--5----5----5----|------------------|
-----------------------|-----------------------|------------------|
Komentari
Još nema komentara