Him

Heartache Every Moment

by:

Pronađi akord!

Ne znaš kako odsvirati neki od akorda pjesmi Heartache Every Moment? Upiši akord u tražilicu i saznaj!

Traženi akord će se prikazati ovdje

Od istog izvođača

Pregledano 1654 puta
Pregledano 1544 puta
Pregledano 2427 puta
Pregledano 1110 puta
Pregledano 1439 puta
Trebaš ritam za ovu pjesmu? Pronađi ga ovdje
Akordi/Tabovi:
Tuning- E B G D A D (drop-d)

Tab Key
~ - let ring

Intro
|-----------------------------------|
|-----------------------------------|
|-----------------------------------|
|--8--6--4---3---4-4-8-6-4-6--------|
|--8--6--4---3---4-4-8-6-4-6--------|
|--8--6--4---3---4-4-8-6-4-6--------|

Verses and chorus
|-----------------------------------------------|
|-----------------------------------------------|
|-----------------------------------------------|
|--8~-6-4--3--4-4---8~-6-4--3--4-4---8~-6-4-6---|
|--8~-6-4--3--4-4---8~-6-4--3--4-4---8~-6-4-6---|
|--8~-6-4--3--4-4---8~-6-4--3--4-4---8~-6-4-6---|

Solo
|-------------------------------------------------------------|
|--8~-6-4-3-4-4~---8~-6-4-3-4-4~---8~-6-4-3-4-4~---8~-6-4-6~--|
|-------------------------------------------------------------|
|-------------------------------------------------------------|
|-------------------------------------------------------------|
|-------------------------------------------------------------|

Outro is the same as the verses and chorus.
Komentari
Još nema komentara