Him

For You

by:

Pronađi akord!

Ne znaš kako odsvirati neki od akorda pjesmi For You? Upiši akord u tražilicu i saznaj!

Traženi akord će se prikazati ovdje

Od istog izvođača

Pregledano 1784 puta
Pregledano 1863 puta
Pregledano 1467 puta
Pregledano 3027 puta
Pregledano 2157 puta
Trebaš ritam za ovu pjesmu? Pronađi ga ovdje
Akordi/Tabovi:
INTRO:  (clean)
e|--------------------------------------------------------------------|
H|o-------------------0---------------------3---------1-----0-----3b-o|
G|----------0-----2-----2---0-----------------0---------2-----2-------|
D|------2-----2-----2-----2---2---------0-------0---2-----2-----2-----|   X 2
A|o---2---2-----2---------------------2---2-------0------------------o|
E|--0---------------------------0-2-3---------------------------------|

e|----|
B|-3--|
G|-0--|
D|-2--|
A|-2--|
E|-0--|
PLAY THE WHOLE THING 2 TIMES
(first time through u play it strum the chord slowly and quickly go back to the start,
and the second time u play it strum the chord string by string and add some trem. effect!)


FIRST VERSE AFTER THE INTRO WITHOUT LYRICS:  (heavy distortion)
e|------------------------------------------------------|
B|o----------------------------------------------------o|
G|------------------------------------------------------|    X 2
D|------------------------------------2*-2*-2-2---------|
A|o-2*--2-2*--2*--2*--2-2-1/5*--5-5*--0*-0*-0-0--3/64-o|
E|--0*--0-0*--0*--0*--0-0-1/3*--3-3*-------------3/64--|              -3-
                                                 _|_/______just strum -3- and slide around!

HEAVY VERSE! WITH LIYRICS! (heavy distortion) [slide in from the upbeat]
e|---------------------------------------------------------------------|
B|---------------------------------------------------------------------|
G|---------------------------------------------------------------------|
D|---------------------------------------------------------------------|  X 2
A|-2-2-2-2--1/5--5--5-5-5--5/1*--2--2-2-2-2--1/5*-------------------2--|
E|-0-0-0-0--1/3--3--3-3-3--3/1*--0--0-0-0-0--1/3*--5-7-5--3-5-3--1--0--|
pm . . . .    .     . . .           . . . .

In the grace of your love I writhe in pain
in 666 ways I love you
and I hope you feel the same


CHORUS:
e|------------------------------------------------------|
B|o----------------------------------------------------o|
G|------------------------------------------------------|    X 2
D|------------------------------------2*-2*-2-2---------|
A|o-2*--2-2*--2*--2*--2-2-1/5*--5-5*--0*-0*-0-0--3/64-o|
E|--0*--0-0*--0*--0*--0-0-1/3*--3-3*-------------3/64--|              -3-
                                                 _|_/______just strum -3- and slide around!
I'm for you
(and I'm dying for your love)
I'm for you
(and my heven's wherever you are)

VERSE AGAIN: (heavy distortion)
e|---------------------------------------------------------------------|
B|---------------------------------------------------------------------|
G|---------------------------------------------------------------------|
D|---------------------------------------------------------------------|  X 2
A|-2-2-2-2--1/5--5--5-5-5--5/1*--2--2-2-2-2--1/5*-------------------2--|
E|-0-0-0-0--1/3--3--3-3-3--3/1*--0--0-0-0-0--1/3*--5-7-5--3-5-3--1--0--|
pm . . . .    .     . . .           . . . .

I'm killing myself for your love
and again all is lost

in 777 ways I love you
till my death do us part


CHORUS:
e|------------------------------------------------------|
B|o----------------------------------------------------o|
G|------------------------------------------------------|    X 4
D|------------------------------------2*-2*-2-2---------|
A|o-2*--2-2*--2*--2*--2-2-1/5*--5-5*--0*-0*-0-0--3/64-o|
E|--0*--0-0*--0*--0*--0-0-1/3*--3-3*-------------3/64--|              -3-
                                  _              _|_/______just strum -3- and slide around!
I'm for you                         
(and I'm dying for your love)        > X 2
I'm for you                         /
(and my heven's wherever you are) -


BRIDGE: (clean & soft)
e|--------------------------------|
B|o------------------------------o|        "i'm not 100% sure about this becouse it's played on
G|--------------------------------|       the bass guitar!" but it's the closest!!
D|--x-x-2--x-2--x-2--x-2--x-2-3---|  X 2
A|o-x-x-2--x-2--x-2--x-2--x-2-3--o|
E|--x-x-x--x-x--x-x--x-x--x-x-x---|


INTERLUDE(SOLO): (clean)---the ahhhaaahhhaaahhaaa part------
e|--------------------------------------------------------------------|
H|o-------------------0---------------------3---------1-----0-----3b-o|
G|----------0-----2-----2---0-----------------0---------2-----2-------|
D|------2-----2-----2-----2---2---------0-------0---2-----2-----2-----|   X 4
A|o---2---2-----2---------------------2---2-------0------------------o|
E|--0---------------------------0-2-3---------------------------------|

e|----|  -
B|-3--|   
G|-0--|       Quickly get the distortion on, strum,
D|-2--|     /  and let it ring!!
A|-2--|    /
E|-0--|  -/

in 666 ways I love you
and my heaven is wherever you are

CHORUS(OUTRO): (distortion)
e|------------------------------------------------------|
B|o----------------------------------------------------o|
G|------------------------------------------------------|    X 4
D|------------------------------------2*-2*-2-2---------|
A|o-2*--2-2*--2*--2*--2-2-1/5*--5-5*--0*-0*-0-0--3/64-o|
E|--0*--0-0*--0*--0*--0-0-1/3*--3-3*-------------3/64--|              -3-
                                                 _|_/______just strum -3- and slide around!

For You             - /   |  /
(I am here for you) -/ /   | /
                         

AND THAT IS IT! PRETTY EASY, AND A WIKED SONG WITH VERY GOOD LYRICS
HIM IS THE BEST BAND!!!
Komentari
Još nema komentara