Him

Death Is In Love With Us

by:

Pronađi akord!

Ne znaš kako odsvirati neki od akorda pjesmi Death Is In Love With Us? Upiši akord u tražilicu i saznaj!

Traženi akord će se prikazati ovdje

Od istog izvođača

Pregledano 2305 puta
Pregledano 2965 puta
Pregledano 1846 puta
Pregledano 3519 puta
Pregledano 1775 puta
Trebaš ritam za ovu pjesmu? Pronađi ga ovdje
Akordi/Tabovi:
INTRO
E||---------------------|--------------------|--------------------|
B||---------------------|--------------------|--------------------|
G||--7----6~---4-----7--|----6~-----4-----7--|----6~---4----------|
D||---------------7-----|--------------7-----|--------------7--6--|
A||---------------------|--------------------|--------------------|
E||---------------------|--------------------|--------------------|
                                                                   
|---------------------|--------------------|--------------------||
|---------------------|--------------------|--------------------||
|---------------------|--4--6~---4---------|--------------------||
|----7~-----4----7----|---------------7-6--|-4----2~---4/-6-4~-||
|---------------------|--------------------|--------------------||
|---------------------|--------------------|--------------------||

OR 
INTRO
E||------------------------|--------------------------|
B||------------------------|--------------------------|
G||--4----4----4--6--6--7--|----7--7--7--7--9--9--11--|
D||--4----4----4--6--6--7--|----7--7--7--7--9--9--11--|
A||--2----2----2--4--4--5--|----5--5--5--5--7--7--9---|
E||------------------------|--------------------------|
                                                         
|------------------------------|-------------------------|
|------------------------------|-------------------------|
|----11--11--11--11--9--11--9--|----9--9--9--9--9--9--9--|
|----11--11--11--11--9--11--9--|----9--9--9--9--9--9--9--|
|----9---9---9---9---7--9---7--|----7--7--7--7--7--7--7--|
|------------------------------|-------------------------|
                                                       
|--------------------------|--------------------------|
|--------------------------|--------------------------|
|--7--7--7--7--7--7--7--7--|--9--9--9--9--9-----------|
|--7--7--7--7--7--7--7--7--|--9--9--9--9--9--7--7--4--|
|--5--5--5--5--5--5--5--5--|--7--7--7--7--7--7--7--4--|
|--------------------------|-----------------5--5--2--|
  Verse1
|------------------------|--------------------------|
|------------------------|--------------------------|
|------------------------|--------------------------|
|------4--4--4--4--4--4--|--2--2--2--2--2--2--2--2--|
|------4--4--4--4--4--4--|--2--2--2--2--2--2--2--2--|
|------2--2--2--2--2--2--|--0--0--0--0--0--0--0--0--|
|------------------------|--------------------------|

                                                     

|--------------------------|--------------------------|
|--------------------------|--------------------------|
|--------------------------|--------------------------|
|--4--4--4--4--4--4--4--4--|--2--2--2--2--2--2--2--2--|
|--4--4--4--4--4--4--4--4--|--2--2--2--2--2--2--2--2--|
|--2--2--2--2--2--2--2--2--|--0--0--0--0--0--0--0--0--|
|--------------------------|--------------------------|

                                                     
|--------------------------|--------------------------|
|--------------------------|--------------------------|
|--------------------------|--------------------------|
|--7--7--7--7--7--7--7--7--|--------------------------|
|--5--5--5--5--5--5--5--5--|--9--9--9--9--9--9--9--9--|
|--------------------------|--7--7--7--7--7--7--7--7--|
|--------------------------|--------------------------|
                                                   
|--------------------------|-----------------------|
|--------------------------|-----------------------|
|--------------------------|-----------------------|
|--------------------------|--2--2--2--2--2--------|
|--7--7--7--7--7--7--7--7--|--2--2--2--2--2--------|
|--5--5--5--5--5--5--5--5--|--0--0--0--0--0--------|
|--------------------------|-----------------------|

Verse2
|----------|-------------------------|-------------------------|
|----------|-------------------------|-------------------------|
|----------|-------------------------|-------------------------|
|-7--7--4--|----4--4--4--4--2--4--2--|----2--2--2--2--7--7--4--|
|-7--7--4--|----4--4--4--4--2--4--2--|----2--2--2--2--7--7--4--|
|-5--5--2--|----2--2--2--2--0--2--0--|----0--0--0--0--5--5--2--|

                                                                             
|---------------------|---------------------|----------------------|
|---------------------|---------------------|----------------------|
|---------------------|-------------------7-|-7--7--7--7--6--6--4--|
|-4--4--4--4--2--4--2-|-2--2--2--2--4--7--7-|-7--7--7--7--6--6--4--|
|-4--4--4--4--2--4--2-|-2--2--2--2--4--7--5-|-5--5--5--5--4--4--2--|
|-2--2--2--2--0--2--0-|-0--0--0--0--2--5----|----------------------|
                                                                   
|-------------------------|---------------|---------------------|
|-------------------------|---------------|---------------------|
|----4--4--4--4--4--4--2--|---------------|-----------19-------|
|----4--4--4--4--4--4--2--|---------------|--2--------19-------|
|----2--2--2--2--2--2--0--|---------------|--2--------19-------|
|-------------------------|---------------|--0--------19-------|


 




Chorus
|------------------------|--------------------------|
|------------------------|--------------------------|
|--4----4----4--6--6--7--|----7--7--7--7--9--9--11--|
|--4----4----4--6--6--7--|----7--7--7--7--9--9--11--|
|--2----2----2--4--4--5--|----5--5--5--5--7--7--9---|
|------------------------|--------------------------|
                                                         
|------------------------------|-------------------------|
|------------------------------|-------------------------|
|----11--11--11--11--9--11--9--|----9--9--9--9--9--9--9--|
|----11--11--11--11--9--11--9--|----9--9--9--9--9--9--9--|
|----9---9---9---9---7--9---7--|----7--7--7--7--7--7--7--|
|------------------------------|-------------------------|
                                                                               
|--------------------|----------------------|---------------------|
|--------------------|----------------------|---------------------|
|-7-7-7-7-7--7--7--7-|-9-9--9--9--9---------|---------------------|
|-7-7-7-7-7--7--7--7-|-9-9--9--9--9-7--7--4-|-4--4--4--4--2--4--2-|
|-5-5-5-5-5--5--5--5-|-7-7--7--7--7-7--7--4-|-4--4--4--4--2--4--2-|
|--------------------|--------------5--5--2-|-2--2--2--2--0--2--0-|
                                                                               
|------------------|----------------------|-----------------------|
|------------------|----------------------|-----------------------|
|------------------|-7-7--7--7--7-7--7--7-|-9--9-9--9--9----------|
|-2-2-2-2-2--2--2--|-7-7--7--7--7-7--7--7-|-9--9-9--9--9--7--7--4-|
|-2-2-2-2-2--2--2--|-5-5--5--5--5-5--5--5-|-7--7-7--7--7--7--7--4-|
|-0-0-0-0-0--0--0--|----------------------|---------------5--5--2-|

Verse3
|------------------------|--------------------------|
|------------------------|--------------------------|
|------------------------|--------------------------|
|------4--4--4--4--4--4--|--2--2--2--2--2--2--2--2--|
|------4--4--4--4--4--4--|--2--2--2--2--2--2--2--2--|
|------2--2--2--2--2--2--|--0--0--0--0--0--0--0--0--|
|------------------------|--------------------------|
                                                     
|--------------------------|--------------------------|
|--------------------------|--------------------------|
|--------------------------|--------------------------|
|--4--4--4--4--4--4--4--4--|--2--2--2--2--2--2--2--2--|
|--4--4--4--4--4--4--4--4--|--2--2--2--2--2--2--2--2--|
|--2--2--2--2--2--2--2--2--|--0--0--0--0--0--0--0--0--|
|--------------------------|--------------------------|




                                                   
|--------------------------|--------------------------|
|--------------------------|--------------------------|
|--------------------------|--------------------------|
|--7--7--7--7--7--7--7--7--|--------------------------|
|--5--5--5--5--5--5--5--5--|--9--9--9--9--9--9--9--9--|
|--------------------------|--7--7--7--7--7--7--7--7--|
|--------------------------|--------------------------|
                                                   
|--------------------------|-----------------------|
|--------------------------|-----------------------|
|--------------------------|-----------------------|
|--------------------------|--2--2--2--2--2--------|
|--7--7--7--7--7--7--7--7--|--2--2--2--2--2--------|
|--5--5--5--5--5--5--5--5--|--0--0--0--0--0--------|
|--------------------------|-----------------------|

Verse4
|---------------------|-------------------------|
|---------------------|-------------------------|
|---------------------|-------------------------|
|------------7--7--4--|----4--4--4--4--2--4--2--|
|------------7--7--4--|----4--4--4--4--2--4--2--|
|------------5--5--2--|----2--2--2--2--0--2--0--|
                                                                             
|------------------|---------------------|-----------------------|
|------------------|---------------------|-----------------------|
|------------------|---------------------|--------------------7--|
|-2-2-2-2-7--7--4--|-4--4--4--4-2--4--2--|--2--2--2--2--4--7--7--|
|-2-2-2-2-7--7--4--|-4--4--4--4-2--4--2--|--2--2--2--2--4--7--5--|
|-0-0-0-0-5--5--2--|-2--2--2--2-0--2--0--|--0--0--0--0--2--5-----|
                                                                       
|----------------------|-------------------------|----------------|
|----------------------|-------------------------|----------------|
|-7--7--7--7--6--6--4--|----4--4--4--4--4--4--2--|----------------|
|-7--7--7--7--6--6--4--|----4--4--4--4--4--4--2--|----------------|
|-5--5--5--5--4--4--2--|----2--2--2--2--2--2--0--|----------------|
|----------------------|-------------------------|----------------|
                       
|---------------------|
|---------------------|
|-----------19-------|
|--2--------19-------|
|--2--------19-------|
|--0--------19-------|







Chorus
|------------------------|--------------------------|
|------------------------|--------------------------|
|--4----4----4--6--6--7--|----7--7--7--7--9--9--11--|
|--4----4----4--6--6--7--|----7--7--7--7--9--9--11--|
|--2----2----2--4--4--5--|----5--5--5--5--7--7--9---|
|------------------------|--------------------------|
                                                         
|------------------------------|-------------------------|
|------------------------------|-------------------------|
|----11--11--11--11--9--11--9--|----9--9--9--9--9--9--9--|
|----11--11--11--11--9--11--9--|----9--9--9--9--9--9--9--|
|----9---9---9---9---7--9---7--|----7--7--7--7--7--7--7--|
|------------------------------|-------------------------|
                                                                               
|--------------------|----------------------|--------------------|
|--------------------|----------------------|--------------------|
|-7-7-7-7-7--7--7--7-|-9-9--9--9-9----------|--------------------|
|-7-7-7-7-7--7--7--7-|-9-9--9--9-9--7--7--4-|-4--4-4--4--2--4--2-|
|-5-5-5-5-5--5--5--5-|-7-7--7--7-7--7--7--4-|-4--4-4--4--2--4--2-|
|--------------------|--------------5--5--2-|-2--2-2--2--0--2--0-|
                                                                               
|-----------------|----------------------|-----------------------|
|-----------------|----------------------|-----------------------|
|-----------------|-7-7--7--7--7-7--7--7-|-9--9-9--9--9----------|
|2-2-2-2--2--2--2-|-7-7--7--7--7-7--7--7-|-9--9-9--9--9--7--7--4-|
|2-2-2-2--2--2--2-|-5-5--5--5--5-5--5--5-|-7--7-7--7--7--7--7--4-|
|0-0-0-0--0--0--0-|----------------------|---------------5--5--2-|

  Bridge
  BRIDGE        7x                                               
|----------------||---------------------|-------------------------|
|----------------||---------------------|-------------------------|
|*--------------*||---------------------|-------------------------|
|*--------------*||------------7--7--4--|----4--4--4--4--2--4--2--|
|----------------||------------7--7--4--|----4--4--4--4--2--4--2--|
|----------------||------------5--5--2--|----2--2--2--2--0--2--0--|
                                                     3x
|--------------------------|--------------------------||
|--------------------------|--------------------------||
|*-------------------------|-------------------------*||
|*----2--2--2--2--7--7--4--|----4--4--4--4--2--4--2--*||
|-----2--2--2--2--7--7--4--|----4--4--4--4--2--4--2---||
|-----0--0--0--0--5--5--2--|----2--2--2--2--0--2--0---||


                   




Chorus End
|---------------||------------------|------------------------|
|---------------||------------------|------------------------|
|---------------||*-4-4--4--6-6--7--|--7--7--7--7--9--9--11--|
|-2-2-2-2-2-2-2-||*-4-4--4--6-6--7--|--7--7--7--7--9--9--11--|
|-2-2-2-2-2-2-2-||--2-2--2--4-4--5--|--5--5--5--5--7--7--9---|
|-0-0-0-0-0-0-0-||------------------|------------------------|
                                                     
|------------------------------|-------------------------|
|------------------------------|-------------------------|
|----11--11--11--11--9--11--9--|----9--9--9--9--9--9--9--|
|----11--11--11--11--9--11--9--|----9--9--9--9--9--9--9--|
|----9---9---9---9---7--9---7--|----7--7--7--7--7--7--7--|
|------------------------------|-------------------------|
                                                                               
|-------------------|---------------------|---------------------|
|-------------------|---------------------|---------------------|
|-7-7-7-7-7-7--7--7-|-9-9-9--9--9---------|---------------------|
|-7-7-7-7-7-7--7--7-|-9-9-9--9--9-7--7--4-|-4--4--4--4-2--4--2--|
|-5-5-5-5-5-5--5--5-|-7-7-7--7--7-7--7--4-|-4--4--4--4-2--4--2--|
|-------------------|-------------5--5--2-|-2--2--2--2-0--2--0--|
                           
|--------------------------||
|--------------------------||
|-------------------------*||
|----2--2--2--2--2--2--2--*||
|----2--2--2--2--2--2--2---||
|----0--0--0--0--0--0--0---||
                                                 
|---------------------------|--------------------------|
|---------------------------|--------------------------|
|*--7--7--7--7--7--7--7--7--|--9--9--9--9--9-----------|
|*--7--7--7--7--7--7--7--7--|--9--9--9--9--9--7--7--4--|
|---5--5--5--5--5--5--5--5--|--7--7--7--7--7--7--7--4--|
|---------------------------|-----------------5--5--2--|

                                                     
|-------------------------|--------------------------||
|-------------------------|--------------------------||
|-------------------------|-------------------------*||
|----4--4--4--4--2--4--2--|----2--2--2--2--2--2--2--*||
|----4--4--4--4--2--4--2--|----2--2--2--2--2--2--2---||
|----2--2--2--2--0--2--0--|----0--0--0--0--0--0--0---||

                                                                       
|--------------------------|--------------------------|--------||
|--------------------------|--------------------------|--------||
|--7--7--7--7--7--7--7--7--|--9--9--9--9--9-----------|--------||
|--7--7--7--7--7--7--7--7--|--9--9--9--9--9--7--7--4--|--------||
|--5--5--5--5--5--5--5--5--|--7--7--7--7--7--7--7--4--|--------||
|--------------------------|-----------------5--5--2--|--------||
Komentari
Još nema komentara