Him

Beautiful

by:

Pronađi akord!

Ne znaš kako odsvirati neki od akorda pjesmi Beautiful? Upiši akord u tražilicu i saznaj!

Traženi akord će se prikazati ovdje

Od istog izvođača

Pregledano 5454 puta
Pregledano 4351 puta
Pregledano 1881 puta
Pregledano 1822 puta
Pregledano 3569 puta
Trebaš ritam za ovu pjesmu? Pronađi ga ovdje
Akordi/Tabovi:
(Played throughout the song mostly between verses and last chorus)
E|-------------------------------------------------------------------------------
B|-------------------------------------------------------------------------------
G|-------------------------------------------------3-~---------------------------
D|-6-6-6-6-6-6-6---9-9-9-9-9-9-9---4-4-4-4-4-4-4---3-~---------------------------
A|-6-6-6-6-6-6-6---9-9-9-9-9-9-9---4-4-4-4-4-4-4---1-~---------------------------
E|-4-4-4-4-4-4-4---7-7-7-7-7-7-7---2-2-2-2-2-2-2---------------------------------


E|------------------------------------------------------------------------
B|------------------------------------------------------------------------
G|------------------------------------------------------------------------
D|-9-9-9-9-9-9-9---11-11-11-11-11-11-11---13-~----------------------------
A|-9-9-9-9-9-9-9---11-11-11-11-11-11-11---13-~----------------------------
E|-7-7-7-7-7-7-7---9--9--9--9--9--9--9----11-~----------------------------


(Played in verses very soft)
E|------------------------------------------------------------------------
B|------------------------------------------------------------------------
G|-------------------------------------------------6-6-6-6-6-6-6----------
D|-8-8-8-8-8-8-8---9-9-9-9-9-9-9---4-4-4-4-4-4-4---6-6-6-6-6-6-6----------
A|-8-8-8-8-8-8-8---9-9-9-9-9-9-9---4-4-4-4-4-4-4---4-4-4-4-4-4-4----------
E|-6-6-6-6-6-6-6---7-7-7-7-7-7-7---2-2-2-2-2-2-2--------------------------x2
Komentari
Još nema komentara