Him

And Love Said No

by:

Pronađi akord!

Ne znaš kako odsvirati neki od akorda pjesmi And Love Said No? Upiši akord u tražilicu i saznaj!

Traženi akord će se prikazati ovdje

Od istog izvođača

Pregledano 1786 puta
Pregledano 2043 puta
Pregledano 1701 puta
Pregledano 1799 puta
Pregledano 3435 puta
Trebaš ritam za ovu pjesmu? Pronađi ga ovdje
Akordi/Tabovi:
Intro
Guitar 1(Acoustic)(also played in the chorus!~!~!~!)
e|--3----3----------0-------2--------------------0------------------|
B|----0------0--------0--------0---------3----0-------3------0------|
G|--0-----0-----0-------0---------0-------0-----------0-------------|
D|------------------------------------------------------------------|
A|------------------------------------------------------------------|
D|------------------------------------------------------------------|x6

Guitar 2(Second time guitar one plays guitar two comes in)
e|----------------------------------|
B|----------------------------------|
G|----------------------------------|
D|-4b(5)-----------4b(5)-----2------|
A|-4b(5)-----------4b(5)-----2------|
D|-4b(5)-----------4b(5)-----2------|

e|------------------------------------------------------------------|
B|------------------------------------------------------------------|
G|------------------------------------------------------------------|
D|--2-----------------------0---------------------------------------|
A|--2x8---------------------0x8-------------------------------------|
D|--2-----------------------0---------------------------------------|

e|------------------------------------------------------------------|
B|------------------------------------------------------------------|
G|--5---------------------------------------------------------------|
D|--5X8---------------------5----------------4b(5)4b(5)-------------|
A|--3-----------------------5X8--------------4b(5)4b(5)-------------|
D|--------------------------5----------------4b(5)4b(5)-------------|

Verse1(is really just drums and bass and some other stuff)

Chorus (distorted
e|--------------------------|
B|--------------------------|
G|--------------------------|
D|-4b(5)----4b(5)-----2-----|
A|-4b(5)----4b(5)-----2-----|
D|-4b(5)----4b(5)-----2-----|
Kill...  me... I begged and love said no...
Leave..  me... For dead and let me go...
e|------------------------------------------------------------------|
B|------------------------------------------------------------------|
G|------------------5-----------------------------------------------|
D|--2-------0-------5x8-------------------5----4b(5)4b(5)--2--------|
A|--2x8-----0x8-----3---------------------5x4--4b(5)4b(5)--2--------|
D|--2-------0-----------------------------5----4b(5)4b(5)--2--------|
Kill..   me...  I cried and love said no...
e|------------------------------------------------------------------|
B|------------------------------------------------------------------|
G|------------------5-----------------------------------------------|
D|--2-------4-------5x8-------------------5----4b(5)4b(5)--2--------|
A|--2x8-----4x8-----3---------------------5x4--4b(5)4b(5)--2--------|
D|--2-------4-----------------------------5----4b(5)4b(5)--2--------|
Kill...   me...  I cried and love said no...
e|------------------------------------------------------------------|
B|------------------------------------------------------------------|
G|------------------5-----------------------------------------------|
D|--2-------4-------5x8---------------5----4----2~~---4b(5)4b(5)--2-|
A|--2x8-----4x8-----3-----------------5x4--4x4--2~~---4b(5)4b(5)--2-|
D|--2-------4-------------------------5----4----2~~---4b(5)4b(5)--2-|



Verse2(same as verse1)



Chorus(distorted)
e|--------------------------|
B|--------------------------|
G|--------------------------|
D|-4b(5)----4b(5)-----2-----|
A|-4b(5)----4b(5)-----2-----|
D|-4b(5)----4b(5)-----2-----|
Kill...   me..  I begged and love said no..
Leave...  me.. For dead and let me go..
e|------------------------------------------------------------------|
B|------------------------------------------------------------------|
G|------------------5-----------------------------------------------|
D|--2-------0-------5x8-------------------5----4b(5)4b(5)--2--------|
A|--2x8-----0x8-----3---------------------5x4--4b(5)4b(5)--2--------|
D|--2-------0-----------------------------5----4b(5)4b(5)--2--------|
Kill..  me... I cried and love said no...
e|------------------------------------------------------------------|
B|------------------------------------------------------------------|
G|------------------5-----------------------------------------------|
D|--2-------4-------5x8-------------------5----4b(5)4b(5)--2--------|
A|--2x8-----4x8-----3---------------------5x4--4b(5)4b(5)--2--------|
D|--2-------4-----------------------------5----4b(5)4b(5)--2--------|
Kill...    me.. I cried and love said no..
e|------------------------------------------------------------------|
B|------------------------------------------------------------------|
G|------------------5-----------------------------------------------|
D|--2-------4-------5x8---------------5----4----2~~---4b(5)4b(5)--2-|
A|--2x8-----4x8-----3-----------------5x4--4x4--2~~---4b(5)4b(5)--2-|
D|--2-------4-------------------------5----4----2~~---4b(5)4b(5)--2-|



After the chorus there is the guitar bit which is:
e|--------------------------------------------|
B|--------------------------------------------|
G|--------------------------------------------|
D|-2-2---5-4--2-2---5-4--2-2---5-4---7-77--10-|
A|-2-2---5-4--2-2---5-4--2-2---5-4---7-77--10-|
D|-2-2---5-4--2-2---5-4--2-2---5-4---7-77--10-|x2

after last time play
e|--------|
B|--------|
G|--------|
D|-5-4-2~-|
A|-5-4-2~-|
D|-5-4-2~-|


Verse3(same as one and two)



Chorus(distorted)
e|--------------------------|
B|--------------------------|
G|--------------------------|
D|-4b(5)----4b(5)-----2-----|
A|-4b(5)----4b(5)-----2-----|
D|-4b(5)----4b(5)-----2-----|
Kill..   me... I begged and love said no...
Leave..  me... For dead and let me go...
e|------------------------------------------------------------------|
B|------------------------------------------------------------------|
G|------------------5-----------------------------------------------|
D|--2-------0-------5x8-------------------5----4b(5)4b(5)--2--------|
A|--2x8-----0x8-----3---------------------5x4--4b(5)4b(5)--2--------|
D|--2-------0-----------------------------5----4b(5)4b(5)--2--------|
Kill...    me...  I cried and love said no...
e|------------------------------------------------------------------|
B|------------------------------------------------------------------|
G|------------------5-----------------------------------------------|
D|--2-------4-------5x8-------------------5----4b(5)4b(5)--2--------|
A|--2x8-----4x8-----3---------------------5x4--4b(5)4b(5)--2--------|
D|--2-------4-----------------------------5----4b(5)4b(5)--2--------|
Kill..   me...  I cried and love said no...
e|------------------------------------------------------------------|
B|------------------------------------------------------------------|
G|------------------5-----------------------------------------------|
D|--2-------4-------5x8---------------5----4----2~~---4b(5)4b(5)--2-|
A|--2x8-----4x8-----3-----------------5x4--4x4--2~~---4b(5)4b(5)--2-|
D|--2-------4-------------------------5----4----2~~---4b(5)4b(5)--2-|


Ending part (Play this when he keeps saying love said no until the end)
e|--3--0---1-------|
B|--------------3--|
G|-----------------|
D|-----------------|
A|-----------------|
D|-----------------|
Komentari
Još nema komentara