Ramones

53rd And 3rd

by: Armstrong

Pronađi akord!

Ne znaš kako odsvirati neki od akorda pjesmi 53rd And 3rd? Upiši akord u tražilicu i saznaj!

Traženi akord će se prikazati ovdje

Od istog izvođača

Pregledano 1197 puta
Pregledano 2001 puta
Pregledano 954 puta
Pregledano 988 puta
Pregledano 866 puta
Trebaš ritam za ovu pjesmu? Pronađi ga ovdje
Akordi/Tabovi:
53rd And 3rd

  repeat 2 times
e:-----------------------------|
B:--------------3-3-3-3--2-2-2-|
G:-1-1-1-1-1----2-2-2-2--2-2-2-|
D:-2-2-2-2-2----0-0-0-0--2-2-2-|
A:-2-2-2-2-2-2-----------0-0-0-|
E:-0-0-0-0-0-0-----------------|


verse
e:-----------------------------|
B:--------------3-3-3-3--2-2-2-|
G:-1-1-1-1-1----2-2-2-2--2-2-2-|
D:-2-2-2-2-2----0-0-0-0--2-2-2-|
A:-2-2-2-2-2-2-----------0-0-0-|
E:-0-0-0-0-0-0-----------------|



  53rd     and 3rd           
:---------------------|
:-3-3-3-3---0--2--2-2-|
:-2-2-2-2---0--2--2-2-|
:-0-0-0-0---0--2--2-2-|
:-----------0--0--0-0-|
:---------------------|

Standing on the street         
:--3--3-3------------|
:--0--0-0-0--2--2-2--|
:--0--0-0-0--2--2-2--|
:--0--0-0-0--2--2-2--|
:--0--0-0----0--0-0--|
:--3--3-3------------|

  53rd     and 3rd           
:---------------------|
:-3-3-3-3---0--2--2-2-|
:-2-2-2-2---0--2--2-2-|
:-0-0-0-0---0--2--2-2-|
:-----------0--0--0-0-|
:---------------------|

I'm tryin' to turn a trick       
:--3--3-3------------|
:--0--0-0-0--2--2-2--|
:--0--0-0-0--2--2-2--|
:--0--0-0-0--2--2-2--|
:--0--0-0----0--0-0--|
:--3--3-3------------|

  53rd     and 3rd           
:---------------------|
:-3-3-3-3---0--2--2-2-|
:-2-2-2-2---0--2--2-2-|
:-0-0-0-0---0--2--2-2-|
:-----------0--0--0-0-|
:---------------------|

You're the one they never pick         
:--3--3-3------------|
:--0--0-0-0--2--2-2--|
:--0--0-0-0--2--2-2--|
:--0--0-0-0--2--2-2--|
:--0--0-0----0--0-0--|
:--3--3-3------------|

  53rd     and 3rd           
:---------------------|
:-3-3-3-3---0--2--2-2-|
:-2-2-2-2---0--2--2-2-|
:-0-0-0-0---0--2--2-2-|
:-----------0--0--0-0-|
:---------------------|

Don't it make you feel sick?       
:--3--3-3------------|
:--0--0-0-0--2--2-2--|
:--0--0-0-0--2--2-2--|
:--0--0-0-0--2--2-2--|
:--0--0-0----0--0-0--|
:--3--3-3------------|

verse
e:-----------------------------|
B:--------------3-3-3-3--2-2-2-|
G:-1-1-1-1-1----2-2-2-2--2-2-2-|
D:-2-2-2-2-2----0-0-0-0--2-2-2-|
A:-2-2-2-2-2-2-----------0-0-0-|
E:-0-0-0-0-0-0-----------------|

  53rd     and 3rd           
:---------------------|
:-3-3-3-3---0--2--2-2-|
:-2-2-2-2---0--2--2-2-|
:-0-0-0-0---0--2--2-2-|
:-----------0--0--0-0-|
:---------------------|

Standing on the street         
:--3--3-3------------|
:--0--0-0-0--2--2-2--|
:--0--0-0-0--2--2-2--|
:--0--0-0-0--2--2-2--|
:--0--0-0----0--0-0--|
:--3--3-3------------|

  53rd     and 3rd           
:---------------------|
:-3-3-3-3---0--2--2-2-|
:-2-2-2-2---0--2--2-2-|
:-0-0-0-0---0--2--2-2-|
:-----------0--0--0-0-|
:---------------------|

I'm tryin' to turn a trick       
:--3--3-3------------|
:--0--0-0-0--2--2-2--|
:--0--0-0-0--2--2-2--|
:--0--0-0-0--2--2-2--|
:--0--0-0----0--0-0--|
:--3--3-3------------|

  53rd     and 3rd           
:---------------------|
:-3-3-3-3---0--2--2-2-|
:-2-2-2-2---0--2--2-2-|
:-0-0-0-0---0--2--2-2-|
:-----------0--0--0-0-|
:---------------------|

You're the one they never pick         
:--3--3-3------------|
:--0--0-0-0--2--2-2--|
:--0--0-0-0--2--2-2--|
:--0--0-0-0--2--2-2--|
:--0--0-0----0--0-0--|
:--3--3-3------------|

  53rd     and 3rd           
:---------------------|
:-3-3-3-3---0--2--2-2-|
:-2-2-2-2---0--2--2-2-|
:-0-0-0-0---0--2--2-2-|
:-----------0--0--0-0-|
:---------------------|

Don't it make you feel sick?       
:--3--3-3------------|
:--0--0-0-0--2--2-2--|
:--0--0-0-0--2--2-2--|
:--0--0-0-0--2--2-2--|
:--0--0-0----0--0-0--|
:--3--3-3------------|

Then I took out my razor blade
:-------------------|
:-----------2-2-2-2-|
:-4-4--4-4--2-2-2-2-|
:-4-4--4-4--2-2-2-2-|
:-2-2--2-2--0-0-0-0-|
:-------------------|

Then I did what God forbade
:-------------------|
:-----------2-2-2-2-|
:-4-4--4-4--2-2-2-2-|
:-4-4--4-4--2-2-2-2-|
:-2-2--2-2--0-0-0-0-|
:-------------------|

Now the cops are after me
:--3--3-3-3-----------|
:--0--0-0-0---2--2-2--|
:--0--0-0-0---2--2-2--|
:--0--0-0-0---2--2-2--|
:--0--0-0-0---0--0-0--|
:--3--3-3-3-----------|

But I proved that I'm no sissy.
:--3--3--3-3----------|
:--0--0--0-0--2--2-2--|
:--0--0--0-0--2--2-2--|
:--0--0--0-0--2--2-2--|
:--0--0--0-0--0--0-0--|
:--3--3--3-3----------|


  53rd     and 3rd           
e:--------------------|
B:------------4-4-4-4-|
G:-1-1-1-1----4-4-4-4-|
D:-2-2-2-2----4-4-4-4-|
A:-2-2-2-2-2--2-2-2-2-|
E:-0-0-0-0-0----------|

Standing on the street
:-------------------|
:-2-2-2-2--4-4--4-4-|
:-2-2-2-2--4-4--4-4-|
:-2-2-2-2--4-4--4-4-|
:-0-0-0-0--2-2--2-2-|
:-------------------|

  53rd     and 3rd           
e:--------------------|
B:------------4-4-4-4-|
G:-1-1-1-1----4-4-4-4-|
D:-2-2-2-2----4-4-4-4-|
A:-2-2-2-2-2--2-2-2-2-|
E:-0-0-0-0-0----------|

I'm tryin' to turn a trick
:-------------------|
:-2-2-2-2--4-4--4-4-|
:-2-2-2-2--4-4--4-4-|
:-2-2-2-2--4-4--4-4-|
:-0-0-0-0--2-2--2-2-|
:-------------------|

  53rd     and 3rd           
e:--------------------|
B:------------4-4-4-4-|
G:-1-1-1-1----4-4-4-4-|
D:-2-2-2-2----4-4-4-4-|
A:-2-2-2-2-2--2-2-2-2-|
E:-0-0-0-0-0----------|

You're the one they never pick
:-------------------|
:-2-2-2-2--4-4--4-4-|
:-2-2-2-2--4-4--4-4-|
:-2-2-2-2--4-4--4-4-|
:-0-0-0-0--2-2--2-2-|
:-------------------|

  53rd     and 3rd           
e:--------------------|
B:------------4-4-4-4-|
G:-1-1-1-1----4-4-4-4-|
D:-2-2-2-2----4-4-4-4-|
A:-2-2-2-2-2--2-2-2-2-|
E:-0-0-0-0-0----------|

Don't it make you feel sick?
:-------------------|
:-2-2-2-2--4-4--4-4-|
:-2-2-2-2--4-4--4-4-|
:-2-2-2-2--4-4--4-4-|
:-0-0-0-0--2-2--2-2-|
:-------------------|

  repeat 4 times
e:-----------------------------|
B:--------------3-3-3-3--2-2-2-|
G:-1-1-1-1-1----2-2-2-2--2-2-2-|
D:-2-2-2-2-2----0-0-0-0--2-2-2-|
A:-2-2-2-2-2-2-----------0-0-0-|
E:-0-0-0-0-0-0-----------------|

stops

  repeat this till the songs end, it'll fade out
53rd & 3rd 
e:-----------------------------|
B:--------------3-3-3-3--2-2-2-|
G:-1-1-1-1-1----2-2-2-2--2-2-2-|
D:-2-2-2-2-2----0-0-0-0--2-2-2-|
A:-2-2-2-2-2-2-----------0-0-0-|
E:-0-0-0-0-0-0-----------------|
Komentari
Još nema komentara