Hladno Pivo

Tisina

by:

Pronađi akord!

Ne znaš kako odsvirati neki od akorda pjesmi Tisina? Upiši akord u tražilicu i saznaj!

Traženi akord će se prikazati ovdje

Od istog izvođača

Pregledano 3235 puta
Pregledano 29117 puta
Pregledano 12872 puta
Pregledano 9189 puta
Pregledano 6536 puta
Trebaš ritam za ovu pjesmu? Pronađi ga ovdje
Akordi/Tabovi:
D--7--910-975--10-9--5--7---
A--7--910-975--10-9--5--7---
E--5--78--753--8--7--3--5---

E-----------------------0---
H-----------------------1---
G-----------------------2---
D--7--910-975--10-9--5--2---
A--7--910-975--10-9--5--0---
E--5--78--753--8--7--3------


a
Tisina lezi mi na plucima

Mada znam da pokraj mene budna si
C
Sat sve glasnije otkucava
G
Tesko da cu brzo zaspati

a
Sumnja kao da me skinula

Ogoljela me sve do kostiju
C
Sad iza svakog osmijeha
        G                 G5
Slutim podsmijeh i prevaru

C                    G
Sve dok u meni zivi sumnja i nemir
      a           G
Budi tu i dokazi mi
         C                    G
Da imam zaklon u tebi kad me niski udarci
a                   G
Zabiju duboko u zemlju

C                    G
Sve dok u meni zivi sumnja i nemir
      a           G
Budi tu i pomozi mi
         C                  G
Kad mi bliske osobe pokazu tamno nalicje
  a                   G
I otkriju budalu naivnu

D--7--910-975--10-9--5--7----
A--7--910-975--10-9--5--7----
E--5--78--753--8--7--3--5----

E-----------------------0----
H-----------------------1----
G-----------------------2----
D--7--910-975--10-9--5--2----
A--7--910-975--10-9--5--0----
E--5--78--753--8--7--3-------

a
Sumnja kao da me skinula

Ogoljela me sve do kostiju
C
Sad iza svakog osmijeha
        G
Slutim podsmijeh i prevaru

A5                                G5
Mozda je vrijeme konacno umiriti se
A5                              G5
Uz novine i veceru cekati lutrije

A----------------3--2--------
E--5--578--8753-------3--5---

A---------------3--2---------
E----578--8753-------3--5----

A--------5----333-2---0------
E----578--753-------3--------

D--7--910-975----------------
A--7--910-975----------------
E--5--78--753----------------

C                    G
Sve dok u meni zivi sumnja i nemir
      a           G
Budi tu i dokazi mi
         C                    G
Da imam zaklon u tebi kad me niski udarci
a                   G
Zabiju duboko u zemlju

C                    G
Sve dok u meni zivi sumnja i nemir
      a           G
Budi tu i pomozi mi
         C                  G
Kad mi bliske osobe pokazu tamno nalicje
  a                   G
I otkriju budalu naivnu

D--7--910-975--10-9--5--7----
A--7--910-975--10-9--5--7----
E--5--78--753--8--7--3--5----

D--7--910-975--10-9--5--7----
A--7--910-975--10-9--5--7----
E--5--78--753--8--7--3--5----
       
Komentari
Još nema komentara