Thompson

Kletva Kralja Zvonimira

by: Guitar360

Pronađi akord!

Ne znaš kako odsvirati neki od akorda pjesmi Kletva Kralja Zvonimira? Upiši akord u tražilicu i saznaj!

Traženi akord će se prikazati ovdje

Od istog izvođača

Pregledano 4554 puta
Pregledano 12064 puta
Pregledano 19498 puta
Pregledano 38463 puta
Pregledano 91287 puta
Trebaš ritam za ovu pjesmu? Pronađi ga ovdje
Akordi/Tabovi:
Thompson - Kletva Kralja Zvonimira

Dm                            C
Prodali su naše snove, judini sinovi
B                   Dm
Suvo zlato bacili u blato
Dm                                  C
Budjenje je bilo tako lijepo, možda prekasno
B                Dm
I nevinom krvlju plaćeno
C                 Dm
Hej umorna zemljo imučena,
B                       C
Ima li još tko umrijeti za te

Dm Gm B C (4x)

B C Dm

                         C
Prodali su naše snove, judini sinovi
B                   Dm
Suvo zlato bacili u blato
Dm                       C
Pred vratima tuđim opet za pravdu molimo
B                  Dm
Težak sada križ mi nosimo
B                 Dm
Hej umorna zemljo izmučena
B                        C
Ima li još tko umrijeti za te


Dm            F
Kralju Dmitre Zvonimire
C            Dm           B
Kroz planine odjekuju krici
Dm         F
O o o o o o o
C                  B
U tamnici tvoji su vojnici


Dm Gm B C (x2)


Dm                   
Izdajice ne imali mira
Gm               Dm
Izdali se kralja zvonimira
Dm
Izdali ste naše velikane
Gm                    Dm
I sinove što su majke dale

Dm                 F
Jučer gledam sliku naroda
Dm              F    C
Baca cvijece po herojima
Dm                    F
A vec sutra pobjednike sude
Dm                   F  C
Prodase ih za Judine škude

B C Dm

Dm            F
Kralju Dmitre Zvonimire
C            Dm           B
Kroz planine odjekuju krici
Dm         F
O o o o o o o
C                  B
U tamnici tvoji su vojnici

Dm Gm B C x2

G#m  C#m  F#  H  x4

D  C  D   BCB

Dm            F
Kralju Dmitre Zvonimire
C            Dm           B
Kroz planine odjekuju krici
Dm         F
O o o o o o o
C                  B
U tamnici tvoji su vojnici


Dm            F
Kralju Dmitre Zvonimire
C            Dm           B
Kroz planine odjekuju krici
Dm         F
O o o o o o o
C                  B
U tamnici tvoji su vojnici

B C Dm - Dm Dm Dm Dm
Komentari

herojulice kaže:

Dm Am
Prodali su naše snove, judini sinovi
B Dm
Suvo zlato bacili u blato
Dm C
Budjenje je bilo tako lijepo, možda prekasno
B Dm
I nevinom krvlju plaćeno
B Dm
Hej umorna zemljo imučena,
B C
Ima li još tko umrijeti za te

04-07-2007 17:21

N.B. kaže:

Pošalji pod novi akord ak očeš, može bit više verzija nije problem

04-07-2007 23:01

frunc kaže:

kako ide onaj dio

------------------------
------------------------
----5h7---5-7---5---7---
----0-----0-0---0---0---
------------------------
------------------------

ovako nešto
to je onaj dio na distorziji nakon cleana

29-07-2007 13:59

frunc kaže:

Akordi/Tabovi:
------------------------
------------------------
----5h7---5-7---5---7---
----0-----0-0---0---0---
------------------------
------------------------


:D

29-07-2007 13:59

PERFORMER kaže:

Bok, ja sam to ovako tabao iako neznam dali je sto posto točno,ako neko ima ispravki neka napiše!

Akordi/Tabovi:
|-----------------------------------------------------------|
|-----------------------------------------------------------|
|--5h7--7-7-7-7/12--12-12-12-12/7--7-7-7-7-7-5-5-5-5h7-5-5--|
|--0----0-0-0-0-----0--0--0--0-----0-0-0-0-0-0-0-0-0-0-0-0--|
|-----------------------------------------------------------|
|-----------------------------------------------------------|

01-08-2007 14:58

frunc kaže:

nevirujen da je baš dobro
čini mi se da ima tu malo više tonova
iden baš pustit i probat

01-08-2007 19:40

frunc kaže:

iden potražit neki program za usporit pismu pa čemo mi to sredit :)

01-08-2007 19:42

frunc kaže:

ma uspori i lipo se cuje al opet nemogu ja skidat kada je onako sporo :D
al ima više tonova ;)
al bar se slažemo da počinje sa ona 2 tona :)

01-08-2007 19:58

herojulice kaže:

---5-------------------------------------------------3--------------------------------------------
-----6-----8-------6-----5-----6----- -5------6-------5----6----5------3-------5----6----5---3----
-------7-----5-------7-----7-----7-------5------5------5----5----5-------4------4----4----4---4--
---------------7-------7-----7------------5------5-----------5-------------5-----5----5----5------
-5---------------------------------- 3-------------------------------5------------------------------
--------------------------------------------------------------------------------------------------

[/code]

02-08-2007 16:23

herojulice kaže:

a jebiga,zmrljalo se,valjda će te skužit

02-08-2007 16:24

frunc kaže:

Akordi/Tabovi:
---5-------------------------------------------------3--------------------------------------------
-----6-----8-------6-----5-----6----- -5------6-------5----6----5------3-------5----6----5---3----
-------7-----5-------7-----7-----7-------5------5------5----5----5-------4------4----4----4---4--
---------------7-------7-----7------------5------5-----------5-------------5-----5----5----5------
-5---------------------------------- 3-------------------------------5------------------------------
--------------------------------------------------------------------------------------------------



evo sad bi trebali bit dobro

al nisan ja na to mislija nego ono na distorziji

02-08-2007 17:19

frunc kaže:

hehe sad još gore ispalo

ma onaj kome triba kopirat ce u notepad :)

02-08-2007 17:19

PERFORMER kaže:

Brijem da si ti nešto krivo skonto,mi ovdje pričamo o dijelu koji se svira na distorziji.

03-08-2007 13:19

PERFORMER kaže:

da da imaš pravo frunc nije dobro idem probat iztabat sad to pa postam!
pozzz

03-08-2007 13:28

PERFORMER kaže:

Akordi/Tabovi:
----------------------------------------------------------------
----------------------------------------------------------------
--5h7--7-5-7-7/12--12-12-10-12-10-12-10-10-9-10-9-10-5-5-5-7-5--
--0----0-0-0-0-----0--0--0--0--0--0--0--0--0--0-0-0--0-0-0-0-0--
----------------------------------------------------------------
----------------------------------------------------------------

03-08-2007 13:45

PERFORMER kaže:

ja mislim da je ovo poprilično točno!!

03-08-2007 13:46

frunc kaže:

e ovako nešto i ja sviran
a sad jel dobro neznan
proban kad odspavan malo :)

03-08-2007 15:12

Ro26 kaže:

ja solo sviram nekako ovako:

7 7 7 7 7 7 7 12 12 12 12 12 12 12 10 10 10 10 10 10 10 9 9 9 9 10 9 7 5
0 0 0 0 0 0 0 0 0 0 0 0 0 0 0 0 0 0 0 0 0 0 0 0 0 0 0 0 0

naravno 3. i 4. zica

20-08-2007 13:53

vladonie kaže:

Hmmmmm da!
Mali podatak ako koga zanima!
Preporucam da si poslusate DEMO VERZIJU ove pjesme koju je snimio zagrebacki heavy demo band SOUNDBRINGER,koja je snimljena barem godinu dana prije nego ju je snimio Thompson...nesto prebolesno originalno i dobro!!! :-)
dakle KLETVA KRALJA ZVONIMIRA je nastala prije dvije godine!

05-09-2007 10:11

Guitar360 kaže:

Da, ali to uopce nije ista stvar.
Ova od Stormbringer pjesma je vise virtuozna, ali bez nekog posebnog razloga, odnosno ima aranžman koji nije nešto, a i na vokal bi se mogao doraditi...

11-09-2007 20:17

GoFgO kaže:

Nemoj mi Beru frenda vrjedjat :)
On jedini u zagrebu moze painkillera pjevat ....jer cini se da nikad neces ono od horde zavrsit :)

11-09-2007 20:40

Johnny Bravo kaže:

decki ide vam ovako uvod:

.5..............................................3..................................1............
...6....8.......6........5.6......5......6.............6....5...........3.....4..........4......3
.....5......5......5............3...3......3......3......3............1....1....1....1.....1.....
...............7.....7...........................................................................
.5......5................5.....3......3.......3.....3.....3.........1........1....1....1.......1.
.................................................................................................

Dm
5..7..8..7........5.........5...........
3..5..6..5.............................
...........5..........5.........5......
........................7..............
..................5..........5...7.....
......................................

29-09-2007 20:00

Johnny Bravo kaže:

solo na el.gitari ide ovako:

.........................................................................................
................................................................................6.5......
.5.7.7.5.7.7.5.7......12.12.10.12.12.10.12........10.10.9.10.10.9.10.......5.5.......7.5..
.0.0.0.0.0.0.0.0......0..0..0..0..0..0..0.........0..0.0..0..0.0..0........0.0............ X2
.........................................................................................
.........................................................................................

Dm
1.1.1.1.1.1.1...3.......................5.
1.1.1.1.1.1.1...3.......................6.
3.3.3.3.3.3.3...5.......................7.
3.3.3.3.3.3.3...5.......................7.
1.1.1.1.1.1.1...3....5....7..8..7...3...5.
..........................................

29-09-2007 20:11

Johnny Bravo kaže:

ovako nasao sam neke greske u akordima:

B Dm
Hej umorna zemljo imučena,
B C
Ima li još tko umrijeti za te

koda ZA TE ide ovako:
Dm
..3.........................
..3.........................
..5........................
..5.........................
..3...5..7..8..7..3........
...........................


i ovo je krivo:

Dm F
Kralju Dmitre Zvonimire
C Dm
Kroz planine odjekuju krici
Dm C F
O o o o o o o
C Dm
U tamnici tvoji su vojnici

Onda opet solo

nakon ovoga:
Dm F C
Prodase ih za Judine škude


Dm
..3.........................
..3.........................
..5........................
..5.........................
..3...5..7..8..7..3........
...........................

i kraj

Dm Dm Dm Dm
..3.........................
..3.........................
..5........................
..5.........................
..3...5..7..8..7..3........
...........................

29-09-2007 20:30

Johnny Bravo kaže:

Ima jos SOLO:

Gitara 1

..........................................................................
..........................................................................
.12.13.13.12.13.12.13.15.15.13.15.15.....15.12.12.12.12.12.13.13.12.13.12.
.......................................................................... X2
..........................................................................
..........................................................................

Gitara 2

.....................................................
.8.9.9.8.9.8.9.11.11.9.11.11..11.8.8.8.8.8.9.9.8.9.8.
.....................................................
..................................................... X2
.....................................................
.....................................................

Gitara 1 Dm Dm Dm

Gitara 2

................
...6.5.6.8.6.5..
................
................
................
................

Gitara 1 Cm Cm Cm

Gitara 2

................
...5.3.5.6.5.3..
................
................
................
................

Gitara 1 Dm Dm Dm

Gitara 2

................
...6.5.6.8.6.5..
................
................
................
................

Dvije gitare zajedno Dm Cm B

30-09-2007 14:12

Johnny Bravo kaže:

sve ove tabove koje sam poslao najbolje je da kopirate u text document, tamo se najbolje vide....

30-09-2007 14:13

Johnny Bravo kaže:

decki dali ima neko ko je za svirku, da sviramo malo thomspona i tak nes.... imam svu opremu...

30-09-2007 14:17

N.B. kaže:

Ovak najbolje bi bilo da napraviš novi akord pa cemo staviti kao verzija dva

30-09-2007 19:48

Dr.House kaže:

:thrasher:thrasher:thrasherOVI TABOVI SU ZAKONNNNNNNN

21-11-2008 19:11

guitar_hero kaže:

ja na gitari znam samo akorde.ali ovu pismu je malo teze svirati na klasicnoj gitari.

02-01-2009 20:02

alen993 kaže:

ahh....nabavi akustaru...kod klasicne je loše jer možeš rukom sam do dvanaestog polja....kod akustare moš do petnaestog...i nemoj svirat sam akorde majstore jer neces daleko dogurat ak se planiras trim bavit il neš slućno....piči solaže 100 na sat, sam smišljaj i sviraj....i to barem po 3 do 4 satana dan...inače ništa od tebe....


ja solo sviram ovak....

5-7-7-5-7-7-5-7-12-12-10-12-12-10-12-10-10-9-10-10-9-10-5-5-5-10-9-8-7
0-0-0-0-0-0-0-0 -0 -0 -0 -0 -0 -0 -0 -0 -0-0 -0 -0-0 -0-0-0-0 -0-0-0-0

i mislim ja je skroz tocan....

15-06-2009 00:52

Tonko666 kaže:

Dm Gm B C x2

G#m C#m F# H x4

D C D BCB............krivo


ovako:
Dm
f cis B C /4x
D C D FCB........ne znam jesam fulal dur il mol al ovak ide

10-04-2010 18:30

matej_20 kaže:

zna li tko ritam za??

18-04-2010 21:26

LUCHA_master kaže:

JA TO OVAKO:

2-------------------------------------------------------------------------6-5-----
3-5--7-7--5--7-7--5-7---12-12--10--12-12--10-12---9-9-9--10-10-9-10---555-----7-5-
4-0--0-0--0--0-0--0-0---0--0---0---0--0---0--0----0-0-0--0--0--0-0----000---------

13-11-2010 14:10

LUCHA_master kaže:

OVO 2,3,4, SU ZICE TO SE NE SVIRA SORRY

13-11-2010 14:11

LUCHA_master kaže:

ISPRAVAK

JA TO OVAKO:

2. -------------------------------------------------------------------------6-5-----
3. -5--7-7--5--7-7--5-7---12-12--10--12-12--10-12---9-9-9--10-10-9-10---555-----7-5-
4. -0--0-0--0--0-0--0-0---0--0---0---0--0---0--0----0-0-0--0--0--0-0----000---------

13-11-2010 14:13

LUCHA_master kaže:

SKROZ GA POMAKLO

13-11-2010 14:14

Slash2912. kaže:

Dobro je :D

18-05-2014 22:23