Tokio Hotel

Schrei

by: Guitar360

Pronađi akord!

Ne znaš kako odsvirati neki od akorda pjesmi Schrei? Upiši akord u tražilicu i saznaj!

Traženi akord će se prikazati ovdje

Od istog izvođača

Pregledano 2368 puta
Pregledano 1089 puta
Pregledano 2618 puta
Pregledano 2004 puta
Pregledano 1016 puta
Trebaš ritam za ovu pjesmu? Pronađi ga ovdje
Akordi/Tabovi:
Schrei

e-----------------x-x--|    |-------|
C--------2-3-0-2--x-x--|    |-------|
G--7-7------------x-x--|    |--7-3--|
D--7-7------------x-x--| x4 |--7-3--|
A--5-5------------x-x--|    |--5-1--|
E--5-5------------x-x--|    |--5-1--|

Bass                        Guitar       
e---------------------------||--8-5------5------|
C---------------------------||-------------5----|
G---------------------------||------------------|
D---------------------------||------------------|
A---------------------------||------------------|
E--5-5-55-55-5--1-1-11-11-1-||------------------|

Bass                        Guitar       
e--------------------------||--8-5------5------|
C--------------------------||-------------5----|
G--------------------------||------------------|
D--------------------------||------------------|x3
A--------------------------||------------------|
E-5-5-55-55-5--1-1-11-11-1-||------------------|
Du stehst auf und kriegst gesagt wohin du gehen sollst
Wenn du da bist hörst du auch noch was du denken sollst
Danke, das war mal wieder echt 'n geiler Tag

Bass                   Guitar       
e--------------------------||--8-5------5------|
C--------------------------||-------------5----|
G--------------------------||------------------|
D--------------------------||------------------|
A--------------------------||------------------|
E-5-5-55-55-5-----1-1-1----||------------------|
Du sagst nichts und keiner fragt dich: Sag mal, willst du das

e--------------------|
C--------------------|
G--------------------|
D-55555555-7---------|x2
A-55555555-7---------|
E-33333333-5---------|
Nein - nein - nein - nananana nein
Nein - nein - nein - nananana nein


e-----------------|    |-------------------|
C--------3-2-0-2--|    |-------------------|
G--7-7------------|    |-------------------|
D--7-7------------| x3 |--3-3-3-5--3-5-7---|
A--5-5------------|    |--3-3-3-5--3-5-7---|
E--5-5------------|    |--1-1-1-3--1-3-5---|
Schrei! Bis du du selbst bist
Schrei! Und wenn es das Letzte ist
Schrei! Auch wenn es weh tut
Schrei so laut du kannst!

e-----------------|    |-------------------|
C--------3-2-0-2--|    |-------------------|
G--7-7------------|    |-------------------|
D--7-7------------| x3 |--3-3-3-5--3-5-7---|
A--5-5------------|    |--3-3-3-5--3-5-7---|
E--5-5------------|    |--1-1-1-3--1-3-5---|
Schrei! Bis du du selbst bist
Schrei! Und wenn es das Letzte ist
Schrei! Auch wenn es weh tut
Schrei so laut du kannst

Bass                        Guitar       
e--------------------------||--8-5------5------|
C--------------------------||-------------5----|
G--------------------------||------------------|
D--------------------------||------------------|
A--------------------------||------------------|
E-5-5-55-55-5--1-1-11-11-1-||------------------|
Schrei! (Schrei so laut du kannst)

Bass                        Guitar       
e--------------------------||--8-5------5------|
C--------------------------||-------------5----|
G--------------------------||------------------|
D--------------------------||------------------|x3
A--------------------------||------------------|
E-5-5-55-55-5--1-1-11-11-1-||------------------|
Pass auf, Rattenfänger lauern überall
Verfolgen dich und greifen nach dir aus'm Hinterhalt
Versprechen dir alles wovon du nie geträumt hast


Bass                   Guitar       
e--------------------------||--8-5------5------|
C--------------------------||-------------5----|
G--------------------------||------------------|
D--------------------------||------------------|
A--------------------------||------------------|
E-5-5-55-55-5-----1-1-1----||------------------|
Und irgendwann ist es zu spät und dann brauchst du das




e--------------------|
C--------------------|
G--------------------|
D-55555555-7---------|x2
A-55555555-7---------|
E-33333333-5---------|
Nein - nein - nein - nananana nein
Nein - nein - nein - nananana nein



e-----------------|    |-------------------|
C--------3-2-0-2--|    |-------------------|
G--7-7------------|    |-------------------|
D--7-7------------| x3 |--3-3-3-5--3-5-7---|
A--5-5------------|    |--3-3-3-5--3-5-7---|
E--5-5------------|    |--1-1-1-3--1-3-5---|
Schrei! Bis du du selbst bist
Schrei! Und wenn es das Letzte ist
Schrei! Auch wenn es weh tut
Schrei so laut du kannst!

e-----------------|    |-------------------|
C--------3-2-0-2--|    |-------------------|
G--7-7------------|    |-------------------|
D--7-7------------| x3 |--3-3-3-5--3-5-7---|
A--5-5------------|    |--3-3-3-5--3-5-7---|
E--5-5------------|    |--1-1-1-3--1-3-5---|
Schrei! Bis du du selbst bist
Schrei! Und wenn es das Letzte ist
Schrei! Auch wenn es weh tut
Schrei so laut du kannst

First Guitar        Second Guitar 
e------------------||--5-6-3-5--|
C------------------||-----------|
G--7--7--x7-x7-x7--||-----------|
D--7--7--x7-x7-x7--||-----------|
A--5--5--x5-x5-x5--||-----------|
E------------------||-----------|
Schrei!

First Guitar                Second Guitar
e--------------------------||--5-6-3-5--|
C--------------------------||-----------|
G--7-7-77777-8-5-5-555555--||-----------|
D--7-7-77777-8-5-5-555555--||-----------|x2
A--5-5-55555-6-3-3-333333--||-----------|
E--------------------------||-----------|
Zurück zum Nullpunkt - jetzt kommt eure Zeit
Lasst sie wissen, wer ihr wirklich seid

Guitar         
e-----------|
C--2-3-0-2--|
G-----------|
D-----------|x4
A-----------|
E-----------|
Schrei   Schrei
       ^(Schrei so laut du kannst)

Guitar                Distortion Guitar
e---------------|---| |---------------|---|
C--2-3-0-2-(x4)-|-5-| |--2-3-0-2-(x4)-|-5-|
G---------------|---| |---------------|---|
D---------------|---| |---------------|---|
A---------------|---| |---------------|---|
E---------------|---| |---------------|---|
Schrei  Schrei - Schrei - Schrei -
       ^(Schrei so laut du kannst)

                          e--x--x--|
                          C--x--x--|
-Jetzt ist unsere Zeit... G--x--x--|
                          D--x--x--|
                          A--x--x--|
                          E--x--x--|


e-----------------|    |-------------------|
C--------3-2-0-2--|    |-------------------|
G--7-7------------|    |-------------------|
D--7-7------------| x3 |--3-3-3-5--3-5-7---|
A--5-5------------|    |--3-3-3-5--3-5-7---|
E--5-5------------|    |--1-1-1-3--1-3-5---|
Schrei! Bis du du selbst bist
Schrei! Und wenn es das Letzte ist
Schrei! Auch wenn es weh tut
Schrei so laut du kannst!

e-----------------|    |-------------------|
C--------3-2-0-2--|    |-------------------|
G--7-7------------|    |-------------------|
D--7-7------------| x3 |--3-3-3-5--3-5-7---|
A--5-5------------|    |--3-3-3-5--3-5-7---|
E--5-5------------|    |--1-1-1-3--1-3-5---|
Schrei! Bis du du selbst bist
Schrei! Und wenn es das Letzte ist
Schrei! Auch wenn es weh tut
Schrei so laut du kannst


Und jetzt Schweig!


e-----------|    |-------------------|
C--2-3-0-2--|    |-------------------|
G-----------|    |-------------------|
D-----------| x6 |--3-3-3-5--3-5-7---|
A-----------|    |--3-3-3-5--3-5-7---|
E-----------|    |--1-1-1-3--1-3-5---|
Nein! Weil du du selbst bist
Nein! Und weil es das Letzte ist
Nein! Weil es so weh tut
Schrei so laut du kannst!


e-----------|    |--------------------|
C--2-3-0-2--|    |--------------------|
G-----------|    |----------------7---|
D-----------| x6 |--3-3-3-5--3-5--7---|
A-----------|    |--3-3-3-5--3-5--5---|
E-----------|    |--1-1-1-3--1-3--5---|

Nein! - Nein! - Nein! - Nein! - Nein! - Nein!
Schrei so laut du kannst

- Schrei!
Komentari
Još nema komentara