Tokio Hotel

Rette Mich

by: Guitar360

Pronađi akord!

Ne znaš kako odsvirati neki od akorda pjesmi Rette Mich? Upiši akord u tražilicu i saznaj!

Traženi akord će se prikazati ovdje

Od istog izvođača

Pregledano 986 puta
Pregledano 2998 puta
Pregledano 1016 puta
Pregledano 11460 puta
Pregledano 1061 puta
Trebaš ritam za ovu pjesmu? Pronađi ga ovdje
Akordi/Tabovi:
Rette Mich

Intro:
E|---------------------------------------------------------------|
B|------0---------------0---------------0---------------0--------|
G|----4---4---4-------4---4---4-------4---4---4-------4---4---4--|
D|--2-------2---2---2-------2---2---2-------2---2---2-------2---2|
A|---------------------------------------------------------------|
E|0---------------0---------------0---------------0--------------|

1 zwrotka (vers):
Zum ersten mal alleine in unserem Versteck...
E|---------------------------------------------------------------|
B|------0-----------------------------------------------------0--|
G|----0-------0-------0-------0-------0-------0-------0-----4(4)4|
D|--2-------4---4---4---4---4---4---4---4---4---4---4-----2------|
A|--------2-----------------------2-------3-------5-----0--------|
E|0---------------3-------2--------------------------------------|

ich seh noch unseren Namen an der Wand...
E|---------------------------------------------------------------|
B|------0-----------------------------------------------------0--|
G|----0-------0-------0-------0-------0-------0-------0-----4(4)4|
D|--2-------4---4---4---4---4---4---4---4---4---4---4-----2------|
A|--------2-----------------------2-------3-------5-----0--------|
E|0---------------3-------2--------------------------------------|

ich wollt dir alles anvertrauen...
E|---------------------------------------------------------------|
B|------0-------------------------------0------------------------|
G|----0-------0-------0-------0-------0-------0-------0-------0--|
D|--2-------4---4---4---4---4---4---2-------4---4---4---4---4---4|
A|--------2-------------------------------2----------------------|
E|0---------------3-------2-------0---------------3-------2------|

komm zurück nimm mich mit...
E|---------------------------------------------------------------|
B|------1---------------0---------------1---------0--------------|
G|----0---0---0-------0---0---0-------0---0---0------------------|
D|--2-------2---2---2-------2---2---2-------2---2----------------|
A|0---------------3---------------0------------------------------|
E|---------------------------------------------------------------|

refren (chorus):
komm und rette mich ich verbrenne innerlich...
E|---------------------------------------------------------------|
B|------3---------------3---------------3---------------3--------|
G|----0---0---0-------0---0---0-------0---0---0-------0---0---0--|
D|--4-------4---4---4-------4---4---4-------4---4---4-------4---4|
A|3---------------5-------------------------------2--------------|
E|--------------------------------0------------------------------|

komm und rette mich ich schaffs nich ohne dich...
E|---------------------------------------------------------------|
B|------3---------------3---------------3---------------2--------|
G|----0---0---0-------0---0---0-------2---2---2-------2---2---2--|
D|--4-------4---4---4-------4---4---2-------2---2---2-------2---2|
A|3---------------5---------------0---------------0--------------|
E|---------------------------------------------------------------|

komm und rette mich...
E|-------------------------------|
B|------3---------------3--------|
G|----0---0---0-------0---0---0--|
D|--4-------4---4---4-------4---4|
A|3---------------5--------------|
E|-------------------------------|

rette mich, rette mich...
E|---------------------------------------------------------------|
B|------0-------------------------------0------------------------|
G|----4-------0-------0-------0-------4-------0-------0-------0--|
D|--2-------4---4---4---4---4---4---2-------4---4---4---4---4---4|
A|--------2-------------------------------2----------------------|
E|0---------------3-------2-------0---------------3-------2------|
Komentari
Još nema komentara