Bijelo Dugme

Durđevdan

by: Guitar360

Pronađi akord!

Ne znaš kako odsvirati neki od akorda pjesmi Durđevdan? Upiši akord u tražilicu i saznaj!

Traženi akord će se prikazati ovdje

Od istog izvođača

Pregledano 8537 puta
Pregledano 30712 puta
Pregledano 15396 puta
Pregledano 6629 puta
Pregledano 11879 puta
Trebaš ritam za ovu pjesmu? Pronađi ga ovdje
Akordi/Tabovi:
Bijelo Dugme - Đurđevdan

Am    G          C             Dm         Am
Proljeće na moje rame slijeće, đurđevak zeleni
Dm         Am     F     G    Am
đurđevak zeleni svima osim meni.

Drumovi odoše, a ja ostah, nema zvijezde Danice
Nema zvijezde Danice, moje suputnice.

Ej, kome sada moja draga na đurđevak miriše
na đurđevak miriše, meni nikad više.

REFREN:
C Dm   C         Dm
Eeeej, evo zore, evo zore
Am         Dm
Bogu da se pomolim
Am        Dm
Evo zore, evo zore
F
Eeej, Đurđevdan je
Dm     Am         E7   Am
A ja nisam s onom koju volim.


Ej, kome sada moja draga na đurđevak miriše
Na đurđevak miriše, meni nikad više.

Njeno ime neka se spominje svakog drugog dana
Svakog drugog dana osim Đurđevdana.

REFREN:
Eeej, evo zore, evo zore
Bogu da se pomolim
Evo zore, evo zore
Eeej, Đurdjevdan je
A ja nisam s onom koju volim.
Komentari

filip96 kaže:

pesma je strava lol ;)

10-06-2009 19:31

breakout.ilija kaže:

el neide tu "drugovi" a ne drumovi ko što sam vidio u svim verzijama??

19-10-2009 12:25

haris kaže:

Mislim da ide drumovi, ali eto.. :D

19-10-2009 20:43

vlajko1992 kaže:

naravno da su Drumovi..!!!

18-12-2009 18:19

carov kaže:

odlicno uradjeno

15-01-2010 19:32

Jasmin Slash kaže:

Uradio sam ness kao tema.. Pocetnik sam pa neznam koliko je dobroo.. Evoo

E---8--9--11--9--8--6--6--8----6-4------------|
B---------------------------------------------|


E---4--6-6--6--4--3--4-6--4--3----------------|
B---------------------------------------------|

E---4--6-6--6--4--3--4-6--4--3----------------|
B---------------------------------------------|

E---4-3-6---4-3-1-----------------------------|
B---------------------------------------------|

E---10--8-6-8---6-6--10-10---8-6-5-3----------|
B---------------------------------------------|

E---6-6--10-10---8-6-5---10---8-6-5---8-6-5---|
B---------------------------------------------|

E---4-3-6---4-3-1-----------------------------|
B---------------------------------------------|

Sve se ovo svira na prvoj zici (najtanjoj)

26-12-2010 03:32

piromanijak kaže:

koji je ritam

19-11-2011 19:48

Nikkola_rmt kaže:

Jasmin Slash
nne bih rekao da si pocetnik ;)
:D

02-06-2012 22:31

mile202 kaže:

Ritam je obicni estam,dakle bas zica pa ostale.prve dve strofe mozes razagat akorde,ili samo brzo prelazit gore dole po zicama!Ako grjesim nek me netko ispravi!

03-06-2012 12:25

mile202 kaže:

Akordi/Tabovi:
E-----------------------------------------------------------------------
H-3-4-6--4-3-----3------------------------------------------------------
G------------5-5---5-3-5-5-5-5-2-3-5-2----5-5-5-5-2-3-5-2----3-2-5-2----
D-------------------------------------5--------------------5---------5-5
A-----------------------------------------------------------------------
E-----------------------------------------------------------------------


I ja sam pocetnik! XD pa pogledajte malo ovu temu,meni zvuci ok,prihvacam sve sugestije i kritike!

03-06-2012 12:39

mile202 kaže:

Ovo sam napisao bez ukrasa,svatko tko imalo zna slusat i ima malo maste moze sam dodat ukrase.

03-06-2012 12:41

Nikkola_rmt kaže:

onako ti je uvod..
Moze to bolje

06-06-2012 18:10