Paul Gilbert

Down to Mexico

by: Guitar360

Pronađi akord!

Ne znaš kako odsvirati neki od akorda pjesmi Down to Mexico? Upiši akord u tražilicu i saznaj!

Traženi akord će se prikazati ovdje

Od istog izvođača

Pregledano 1688 puta
Pregledano 1892 puta
Pregledano 1955 puta
Pregledano 1813 puta
Pregledano 1755 puta
Trebaš ritam za ovu pjesmu? Pronađi ga ovdje
Down to Mexico


e|---------------------------------------------------------------|
B|--3--3-----------3--3---------------------------3--3-----------|
G|-------5--3------------5--3--------------3~------------5--3----|
D|-------------5----------------5---3---5-----5----------------5-|
A|---------------------------------------------------------------|
E|---------------------------------------------------------------|

e|---------------------------------------6-------------------------|
B|--3--3---------------------------------6---3--3------------------|
G|--------5--3----------3------3------3------------5--3------------|
D|--------------5-------3------3------3------------------5---------|
A|-----------------3/5----3/5----3/5-------------------------------|
E|-----------------------------------------------------------------|

e|--------------------------------------------------------------------------|
B|--3--3--------------------------------------------------------------------|
G|--------5--3-----------3~----------10h12-------10h12------10h12-----10h12-|
D|--------------5--3--5-----5--10h12-------10h12-------10h12-----10h12------|
A|--------------------------------------------------------------------------|
E|--------------------------------------------------------------------------|

e|--------------------------|
B|---11---------------------|
G|-------12--10-----12------|
D|---------------12---------|
A|--------------------------|
E|--------------------------|

/ slide up
| \ slide down
| h hammer-on
| p pull-off
| ~ vibrato
| + harmonic
| x Mute note
Komentari
Još nema komentara