Ozzy Osbourne

Mama I'm Coming Home

by:

Pronađi akord!

Ne znaš kako odsvirati neki od akorda pjesmi Mama I'm Coming Home? Upiši akord u tražilicu i saznaj!

Traženi akord će se prikazati ovdje

Od istog izvođača

Pregledano 1003 puta
Pregledano 2351 puta
Pregledano 875 puta
Pregledano 1235 puta
Pregledano 1362 puta
Trebaš ritam za ovu pjesmu? Pronađi ga ovdje
Akordi/Tabovi:
Guitar tuning:1/2 a step down
INTRO:
e--12--------------|
B----12------------|
G--------13/11--9--|
D------------------|
A------------------|
E-----------------0|

e---0-------0-------0-----0--------0-----0--------0-----0------|
B----0-------0-------0-----0--------0-----0--------0------0----|
G-9-------8------8-6-----4-----4-2------1-----1----------------|
D----------------------------------------------4------2--------|
A--------------------------------------------------------------|
B------------------------------------------------------------0-|


e|--0-------0-------0-----0--------0-----0--------0-----0------|
B|----0-------0-------0-----0--------0-----0--------0-----0----|
G|9-------8------8-6-----4-----4-2------1-----1----------------|
D|---------------------------------------------4------2--------|
A|-------------------------------------------------------------|
E|-----------------------------------------------------------0-|


e----------0---------0-------0-------0--------0---0--0--------0---0--0-----|
B--------------0-------0-------0-------0--------0-0----0--------0-0----0---|
G-------9---------8------8-6-----4-------4-2------1------1--------1--------|
D---------------------------------------------------------4-------2--------|
A--------------------------------------------------------------------------|
E-0-----------------------------------------------------------------------0|


VERSE:
       
e----------0---------0-------0-------0--------0---0--0--------0---0--0-----|
B--------------0-------0-------0-------0--------0-0----0--------0-0----0---|
G-------9---------8------8-6-----4-------4-2------1------1--------1------1-|
D---------------------------------------------------------4-------2--------|
A--------------------------------------------------------------------------|
E-0------------------------------------------------------------------------|

   
e---------0-------------0-------|--------0-------------0-------0------|
B-----------0-------------0-----|---0----------0---------0-------0----|
G------2------2-------2-----2---|------1---------1--1/2-----2/4-------|
D----2---------2----2---------2-|-2-----------------------------------|
A--0--------------0-------------|-------------------------------------|
E-------------------------------|-------------------------------------|

Pre-Chorus :1

e-4---4---X---5----5----|-0---0---------0---0----=0--------|
B-5---5---X---5----5--x-|-0---0--x---x--0---0--x-=0--x--x--|
G-6---6---X---6----6--x-|-1---2--X---X--1---2--x-=1--x--x--|
D-6---6---X---7----7--x-|-2---2--X---X--2---2--x-=2--x--x--|
A-4---4---X---7---------|-2---2---------2---2-----=--------|
E-------------5---------|-0---0---------0---0--------------|


e--4----4-----5---5------------7---------------7--------|
B--5----5--x--5---5---x----------7--------------7-------|
G--6----6--x--6---6---x------------8-------------8------|
D--7----7--x--7---7---x-----9---------9------9-----9----|
A--4----------7-----------9-------------9---9--------9--|
E-------------5---------7-----------------7-------------|



Pre-chorus :2
e----------------------|---------------------------------------|
B----------------------|---------------------------------------|
G---6---6----2---------|---------------------------------------|
D---6---6----2---------|-2-------------------------------------|
A---4---4----0---------|-2-----[4]----[4]--[4]-----------------|
E------------------}0{-|-0--0------}0{---0----}0{-4--5--4--0---|

e-------------------|------------------------------------|
B-------------------|------------------------------------|
G---6----------2----|--4-----------4----------4----------|
D---6----x--x--2----|--4-----------4----------4----------|
A---4----x--x--0----|--2--}2{-}2{--2--}2{-}2{-2----------|
E-------------------|----------------------------2---4---|

Pre Chorus :3
e------0---------|------------------------|------
B------2---------|------------------------|------
G--2---2---------|--2-1-------------------|--2----
D--2---2---------|--2-2--4----4--4---4--2-|--2----
A--0---0---------|--2-2--2----2--2---2----|--0----
E----------------|--0-0--0----0--0--------|-------

e---------------|--------------|-0---------------------
B---------------|--------------|-0-------------------
G-2-X-----------|-2---4--------|-9---------------2-------
D-2-X--2--------|-2---4---X----|-9-------X-------2------
A-2-0--2--------|-0---6-----X--|-7-------X-------0----------
E-0----0--2---4-|-----7--------|--------------------------


Chorus:
e------------------|---------------|------------------|
B------------------|---------------|------------------|
G--2-------4-------|--5---------7--|--2----2-2--------|
D--2-------4-------|--5---------7--|--2----2-2--------|
A--0-------2-------|--3---------5--|--0----0-0--------|
E------------------|---------------|--------------19\-|

e--------------|-------------------|
B--------------|-------------------|
G--5-----7-----|-------------------|
D--5-----7-----|-------------------|
A--3-----5-----|--9-9-9-9-9-9-9\---|
E--------------|--7-7-7-7-7-7-7\---|

Interlude:

e--3-----5-------0-------12*-|----------------------|------0----------|
B--3-3---5---------0-----12*-|-------------------9--|-0----0--0-------|
G--4---4-6--6/--------13-----|-12-11--9----9--11----|-----------1-----|
D--5-----7-------------------|----------12----------|----2--------2---|
A----------------------------|----------------------|---------------2-|
E----------------------------|----------------------|-----------------|

e-3------5-----------12---|----------------------|
B---3------5---0----------|----------------------|
G-----4------6/---13------|----------------------|
D-------------------------|-9-9-9-9-9-9-9----9---|
A-------------------------|-9-9-9-9-9-9-9----9---|
E-------------------------|-7-7-7-7-7-7-7----7---|

Guitar Solo:

e----------------------12-----12--------|--------------------------|
B----------------------12p14--12p14--10-|-12tr--10---10h12r10--9tr-|
G-------9----9--11p13-------------------|--------------------------|
D--9h11---11----------------------------|--------------------------|
A---------------------------------------|--------------------------|
E---------------------------------------|--------------------------|


e----------------------12-----12--------|--------------------------|
B----------------------12p14--12p14--10-|-12tr--10---10h12r10--9tr-|
G-------9----9--11p13-------------------|--------------------------|
D--9h11---11----------------------------|--------------------------|
A---------------------------------------|--------------------------|
E---------------------------------------|--------------------------|

e---------------------------------------|
B---------------------------------------|
G------9----9--9tr---11p13--9---11tr--9-|
D-9h11---11-----------------------------|
A---------------------------------------|
E---------------------------------------|

e------------------------------------------|
B-19p21--19p21-17h19r17tr-19p21--19p21--17-|
G-19p21--19p21-----------------------------|
D------------------------------------------|
A------------------------------------------|
E------------------------------------------|

e----------16--17--18--19--19p21--------------------|
B-19tr---------------------------19p21--17----------|
G-------------------------------------------18------|
D---------------------------------------------------|
A---------------------------------------------------|
E---------------------------------------------------|

Outro:

e---0-------0-------0-----0--------0-----0--------0-----0------0--|
B----0-------0-------0-----0-----------------------0------0----0--|
G-9-------8-------6-----4------2------1----2----------1--------1--|
D-----------------------------------------------------------4--2--|
A--------------------------------------------------------------2--|
B--------------------------------------------------------------0--|



Lyrics:

Verse:

Times have changed and times are strange
Here I come , But I ain't the same
Mama, I'm Coming Home

Times gone by seem to be
You could have been a better friend to me
Mama, I'm Coming Home

Pre Chorus:1

Took me in and you drove me out
Yeah, you had me hypnotized
Lost and found and turned around
By the fire in your eyes

Verse:

You made me cry, told me lies
But, I can't stand to say goodbye
Mama, I'm Coming Home

I could be right, I could be wrong
Hurts so bad, it's been so long
Mama, I'm Coming Home

Pre Chorus:2

Selfish love yeah we're both alone
The ride before a fall
But I'm gonna take this heart of stone
I just got to have it all

Pre Chorus:3

I've seen your face a hundered times
Everyday we've been apart
I don't care about the sunshine, yeah

Chorus:

'Cause Mama, Mama, I'm Coming Home
I'm Coming Home

Interlude:

Guitar Solo:

Pre Chorus:1

You took me in and you drove me out
Yeah, you had the hypnotised
Lost and found and turned around
By the fire in your eyes

Pre Chorus:3

I've seen your face a hundered times
Everyday we've been apart
I don't care about the sunshine, yeah

Chorus:

'Cause Mama, Mama, I'm Coming Home
I'm Coming Home
Komentari
Još nema komentara