Prljavo Kazalište

Crno Bijeli Svijet - Solo

by: StipeR

Pronađi akord!

Ne znaš kako odsvirati neki od akorda pjesmi Crno Bijeli Svijet - Solo? Upiši akord u tražilicu i saznaj!

Traženi akord će se prikazati ovdje

Od istog izvođača

Pregledano 2700 puta
Pregledano 9101 puta
Pregledano 10605 puta
Pregledano 3837 puta
Pregledano 123940 puta
Trebaš ritam za ovu pjesmu? Pronađi ga ovdje
Akordi/Tabovi:
Standard EADGBe

Preslušavati pjesmu za ritam

e |------------------------6--------6--6/8---------------------------6--------6------6/8---|
B |---8-X-6--8--------------8-8--------------6/8--6--8---------------8-8----------------|
G |---------------8--5---------------------------------------8--5---------------------------|
D |--------------------------------------------------------------------------------------------|
A |--------------------------------------------------------------------------------------------|
E |--------------------------------------------------------------------------------------------|
                                                                                                                                               ______
e |----------------------------------------------------------------------------------------------------------|                   |
B |----------------------------------------------------------------------------------------------------------|                   |
G |----7-8--8--8p7p5---7--5---8--8--8p7p5--7--5---7--8---8--8p7p5--7--8/10--8--7---------|                   |
D |----------------------------------------------------------------------------------------------------------|                   |
A |----------------------------------------------------------------------------------------------------------|                   |
E |----------------------------------------------------------------------------------------------------------|                   |
                                                                                                                                                            |     x2
e |----------------------------------------------------------------------------------------------------------|                   |
B |----------------------------------------------------------------------------------------------------------|                   |
G |----7-8--8--8p7p5---7--5---8--8--8p7p5--7--5---7--8---8--8p7p5--7--5--5--5-5----------|                   |
D |----------------------------------------------------------------------------------------------------------|                  |
A |----------------------------------------------------------------------------------------------------------|                  |
E |----------------------------------------------------------------------------------------------------------|     ______ |
Komentari
Još nema komentara