Đorđe Balašević

Lađarska serenata (s uvodnim prebiranjem)

by: PaulSimonRvat

Pronađi akord!

Ne znaš kako odsvirati neki od akorda pjesmi Lađarska serenata (s uvodnim prebiranjem)? Upiši akord u tražilicu i saznaj!

Traženi akord će se prikazati ovdje

Od istog izvođača

Pregledano 15226 puta
Pregledano 17951 puta
Pregledano 3056 puta
Pregledano 7972 puta
Pregledano 6829 puta
Trebaš ritam za ovu pjesmu? Pronađi ga ovdje
Uvod- prebiranje/solo:

D A

e|-------2-----4----5-------|--------0-----4----5----|
B|---------------------------|---------------------------|
G|----2-----2----2-----2--|---------------------------|
D|--0-------------------- --|----2-----2-----2-----2-|
A|---------------------------|-0------------------------|
E|---------------------------|---------------------------|


E A
e|------------------------|-----0------------------|
B|-----0----2----3------|----------3----2-------|
G|----------------------- |------------------------|
D|---2---2----2----2---|---2---2----2----2----|
A|------------------------|-0--------------------- |
E|-0---------------------|------------------------|


D A

e|-------2-----4----5------|--------0-----4----5-----|
B|---------------------------|---------------------------|
G|----2-----2----2-----2--|---------------------------|
D|--0-------------------- --|----2-----2-----2-----2--|
A|---------------------------|-0------------------------|
E|---------------------------|---------------------------|

E A

e|--------------------------|------------------------|
B|-------3----2----0-----|----------2-------------|
G|-------------------------|-----2---------2-------|
D|----2----2----2----2--|---2---2----2----2----|
A|-------------------------|-0----------------------|
E|-0----------------------|-------------------------|





Ostatak pjesme prebirati ovako:

Npr. A

e|-----------------------|
B|-----------2----------|
G|-----2---------2-----|
D|---2---2----2---2---|
A|-0--------------------|
E|-----------------------| itd.

(Ovo je moj prvi tab ikad napisan, nisam pazio na svaki razmak, skuzit cete vec po pjesmi...)

A E
Da od silnih briga Bog posustane,
E A
Pa me zamoli da ga odmenim,
A E
Ne bi bilo lepo da mu, dok ne ustane,
E7 A
Svet na bolje promenim...


A E
Ipak, kad vec držim žezlo cudesno,
E A
Zavar'o bih trag gromom plamenim...
A E
A dotle bih reku skren'o malko udesno,
E7 A (A7)
Starim drumom kamenim...


D A
Pa da kroz moj salaš lade prolaze,
E A
I od derma još stanu trubiti,
D A
Da ti bar s basamka gledam obraze...
Bm E
Kad ih ne smem ljubiti...


Pa da me u službu sam car pri'vati...
Teget mundir knap... Dugmad - dukati...
Da se, kad medaljon kreneš pokazivati,
Nemaš cime brukati...


Pa da i tvoj baba podavije rep...
I da drugi list pocne listati:
Jel'te, gospon-matroz, možel' ovaj šlep
Pod vaš oraj pristati?


Malen je sobicak srce bekrije...
Jednu jedinu može primiti...
Al bez brige... Sve da santa nebo prekrije...
Imaš di prezimiti...


Sad utuli fenjer... Sakri šibicu...
Mesecev cu prah tek da istrunim...
Da u mraku lovim zlatnu ribicu...
Da joj želju ispunim...
Komentari
Još nema komentara